Log in

One click and you are in

Login with Facebook Login with Google

Why sign up and log in

Guitar Tabs Explorer
Misc Cartoons bass tabs for Capitan harlock theme

Capitan Harlock Theme bass tab by Misc Cartoons

Misc Cartoons bass tabs for Capitan harlock theme

Bass tabs with lyrics

Tuning: Standard (E A D G)

CAPITAIN HARLOCK (Bassline)

 Gtr I (E A D G) - 'Karaoke by'
  Q=120
 4/4    1/4  4/4
  Gtr I
  W     E E  Q E E Q E S S  Q +S S E +S S E Q  Q Q Q Q
G|----------|-----|-----------------|-----------------------|---------------|
D|----------|-----|-----------------|-----------------------|-5--5--5--5----|
A|----------|-----|-3----3----------|-3--(3)---3-(3)--------|---------------|
E|----------|---3-|-------------3---|-----------------------|---------------|


  Q Q Q Q  Q E S S E S S S S S S  Q E S S Q S S S S
G|----7--------|------------------------|----------2------2-0-|
D|-5-----5-----|------------------------|----2---2----2-------|
A|-------------|-3--------3---3-----3---|-0-------------------|
E|----------3--|----3---3-------3-------|---------------------|


  E. S S S S S E S S S S E  E S S E S S E E E E  E S S E S S E S S E S S
G|--------------------------|---------------------|--------------------------|
D|-3----3-------------------|-----------------5---|--------------------------|
A|----3-----5---3-----3---4-|-5---5---------------|-3---3-------3---3---3----|
E|------------------3-7-----|-------5-4---3-----3-|-------3---3-------3------|


  E E E S S E S S E E  E S S E S S E E E E  E S S S S E Q E E
G|-------2-2-2-----2---|---------------------|--------------------|
D|-------------------2-|-3---3---------------|----------------5---|
A|-0-------------0-----|-------3-5---3---3-4-|-5---5--------------|
E|---------------------|---------------------|-------5---4-3----3-|

  Q E S S E S S S S S S  Q E S S Q S S S S  E. S S S S S E S S S S E
G|------------------------|----------2------2-0-|--------------------------|
D|------------------------|----2---2----2-------|-3----3-------------------|
A|-3--------3---3-----3---|-0-------------------|----3-----5---3-----3---4-|
E|----3---3-------3-------|---------------------|------------------3-7-----|


  E S S E S S E E E E  Q E S S E S S S S S S  Q E S S Q S S S S
G|---------------------|------------------------|----------2------2-0-|
D|-----------------5---|------------------------|----2---2----2-------|
A|-5---5---------------|-3--------3---3-----3---|-0-------------------|
E|-------5-4---3-----3-|----3---3-------3-------|---------------------|


  E. S S S S S E S S S S E  E S S E S S E E Q  Q +S S S S Q E S S
G|--------------------------|--------------------|-----------------------|
D|-3----3-------------------|--------------------|-----------------------|
A|----3-----5---3-----3---4-|-5---5--------------|-3--(3)---3------------|
E|------------------3-7-----|-------5-4---3------|-------------------3---|


  Q +S S E Q E S S  E S S S S S S E S S S S E  Q E E E S S S S S S
G|---------------------|---------------------------|-----------------------|
D|-----------------5-6-|-7---7-----7-7-------------|----5-------------5-5--|
A|-3--(3)---3----------|---------------7---7-----7-|--------3---3----------|
E|---------------------|-------5-------------8-----|-3----3-------3--------|


  E. S S S S S Q E S S  E. S E S S S S S S E S S  E. S S S S S E S S S S E
G|-----------------------|--------------------------|--------------------------|
D|-3-----------------5---|------7-6---5-------------|------7-------------------|
A|------0---2---3------7-|-5--5-----------2-0-------|--------------7---7-----7-|
E|----3------------------|----------------5---3-3-4-|-5--5-----5-5-------8-----|


  Q E E E S S S S S S  E. S S S S S Q S S S S  E. S E S S S S S S E S S
G|----------------------|-------------------------|--------7-----------------|
D|----5-------------5-5-|-3-------------------5---|------7-----5---------2---|
A|--------3---3---------|------0---2---3----3---7-|-5--5---------7-----------|
E|-3----3-------3-------|----3--------------------|----------------8-5-3-----|


  E. S S S S S S S S S S S S S  S S S S S S E +Q  S S S S
G|------------------------------|---------0---5-(5)--5-4-2-0-|
D|-3----------------2---3-------|-----2----------------------|
A|----3-------------------------|-3--------------------------|
E|------1---1-1-1-----------1---|----------------------------|


  Q +S S S S Q +S S S S  S S S S S S E +Q  E S S  Q Q Q Q
G|---------------------------|---------0---5-(5)--------|--------------|
D|-3--(3)--------------------|-----2--------------------|--------------|
A|---------------------------|-3------------------------|--------------|
E|----------1-1-1--(1)---1-3-|----------------------1-2-|-3--3--3--3---|


  Q Q S E. Q  Q E S S E S S S S S S  Q E S S Q S S S S
G|---------------|------------------------|----------2------2-0-|
D|---------------|------------------------|----2---2----2-------|
A|----5----------|-3--------3---3-----3---|-0-------------------|
E|-3-------3--3--|----3---3-------3-------|---------------------|


  E. S S S S S E S S S S E  E S S E S S E E E E  E S S E S S E S S E S S
G|--------------------------|---------------------|--------------------------|
D|-3----3-------------------|-----------------5---|--------------------------|
A|----3-----5---3-----3---4-|-5---5---------------|-3---3-------3---3---3----|
E|------------------3-7-----|-------5-4---3-----3-|-------3---3-------3------|


  E E E S S E S S E E  E S S E S S E E E E  E S S S S E Q E E
G|-------2-2-2-----2---|---------------------|--------------------|
D|-------------------2-|-3---3---------------|----------------5---|
A|-0-------------0-----|-------3-5---3---3-4-|-5---5--------------|
E|---------------------|---------------------|-------5---4-3----3-|


  Q E S S E S S S S S S  Q E S S Q S S S S  E. S S S S S E S S S S E
G|------------------------|----------2------2-0-|--------------------------|
D|------------------------|----2---2----2-------|-3----3-------------------|
A|-3--------3---3-----3---|-0-------------------|----3-----5---3-----3---4-|
E|----3---3-------3-------|---------------------|------------------3-7-----|


  E S S E S S E E E E  Q E S S E S S S S S S  Q E S S Q S S S S
G|---------------------|------------------------|----------2------2-0-|
D|-----------------5---|------------------------|----2---2----2-------|
A|-5---5---------------|-3--------3---3-----3---|-0-------------------|
E|-------5-4---3-----3-|----3---3-------3-------|---------------------|


  E. S S S S S E S S S S E  E S S E S S E E Q  Q +S S S S Q E S S
G|--------------------------|--------------------|-----------------------|
D|-3----3-------------------|--------------------|-----------------------|
A|----3-----5---3-----3---4-|-5---5--------------|-3--(3)---3------------|
E|------------------3-7-----|-------5-4---3------|-------------------3---|


  Q +S S E Q E S S  E S S S S S S E S S S S E  Q E E E S S S S S S
G|---------------------|---------------------------|-----------------------|
D|-----------------5-6-|-7---7-----7-7-------------|----5-------------5-5--|
A|-3--(3)---3----------|---------------7---7-----7-|--------3---3----------|
E|---------------------|-------5-------------8-----|-3----3-------3--------|


  E. S S S S S Q E S S  E. S E S S S S S S E S S  E. S S S S S E S S S S E
G|-----------------------|--------------------------|--------------------------|
D|-3-----------------5---|------7-6---5-------------|------7-------------------|
A|------0---2---3------7-|-5--5-----------2-0-------|--------------7---7-----7-|
E|----3------------------|----------------5---3-3-4-|-5--5-----5-5-------8-----|


  Q E E E S S S S S S  E. S S S S S Q S S S S  E. S E S S S S S S E S S
G|----------------------|-------------------------|--------7-----------------|
D|----5-------------5-5-|-3-------------------5---|------7-----5---------2---|
A|--------3---3---------|------0---2---3----3---7-|-5--5---------7-----------|
E|-3----3-------3-------|----3--------------------|----------------8-5-3-----|


  E. S S S S S S S S S S S S S  S S S S S S E +Q  S S S S
G|------------------------------|---------0---5-(5)--5-4-2-0-|
D|-3----------------2---3-------|-----2----------------------|
A|----3-------------------------|-3--------------------------|
E|------1---1-1-1-----------1---|----------------------------|


  Q +S S S S Q +S S S S  S S S S S S E +Q  E S S  H  H
G|---------------------------|---------0---5-(5)--------|-----------*|
D|-3--(3)--------------------|-----2--------------------|-----------*|
A|---------------------------|-3------------------------|-----------*|
E|----------1-1-1--(1)---1-3-|----------------------1-2-|-3---------*|


Duration Legend
---------------
W - whole; H - half; Q - quarter; E - 8th; S - 16th; T - 32nd; X - 64th; a - acciaccatura
+ - note tied to previous; . - note dotted; .. - note double dotted
Uncapitalized letters represent notes that are staccato (1/2 duration)
Irregular groupings are notated above the duration line
Duration letters will always appear directly above the note/fret number it represents the
duration for. Duration letters with no fret number below them represent rests. Multi-
bar rests are notated in the form Wxn, where n is the number of bars to rest for. Low
melody durations appear below the staff

Tablature Legend
----------------
************************************

| (n) Ghost note
| *  Natural harmonic

************************************
Misc Legend
-----------
 | - bar
|| - double bar
||o - repeat start
o|| - repeat end
*| - double bar (ending)
 : - bar (freetime)
 $ - Segno
 & - Coda
Tempo markers - = BPM(8/16=s8/s16), where s8 = swing 8ths, s16 = swing 16ths


************************************

| (n) Ghost note
| *  Natural harmonic

************************************

Almost there ...

Sign in to get your own page with links to favourite songs and more. You are just one click away...

Login with Facebook Login with Google