Log in

One click and you are in

Login with Facebook Login with Google

Why sign up and log in

Guitar Tabs Explorer
Misc Cartoons bass tabs for Boku no hero academia - hero too

Boku No Hero Academia - Hero Too bass tab by Misc Cartoons

Misc Cartoons bass tabs for Boku no hero academia - hero too

Bass tabs

Tuning: Standard (E A D G)


{This is an unfinished version}
Intro:

G|--------------------------------------------0-0-----0-----1-1-1-0----------|
D|-----------------1-1-----1----3-3-----3----------3----------------3\1------|
A|----------------------1------------3---------------------------------------|
E|--5-\-0--------------------------------------------------------------------|


G|-------------------------------0-0-----0-----1-1-1-0-1-3-------------------|
D|----1-1-----1----3-3-----3----------3--------------------------------------|
A|---------1------------3----------------------------------------------------|
E|---------------------------------------------------------------------------|


Verse 1:

G|---------------------------------------------------1----1--3---------------|
D|---1--1--1--------1--1--1-------1--1--1------------------------------------|
A|------------1--------------1-------------1---------------------------------|
E|---------------------------------------------------------------------------|

G|---------------------------------------------------1----1--3---------------|
D|---1--1--1--------1--1--1-------1--1--1------------------------------------|
A|------------1--------------1-------------1---------------------------------|
E|---------------------------------------------------------------------------|

Pre-Chorus:

G|-----------------------------------------1------3--------------------------|
D|-----------------------------3-----1---------------------------------------|
A|--3------1-----------------------------------------------------------------|
E|---------------4------3----------------------------------------------------|


Chorus:

G|-------3---1---------------------------------------------------------------|
D|---1----------------------------------------------1------------------------|
A|---------------1-------------------1--2---3---1-------1-------1-1--1-1--1--|
E|--------------------4----3----4---------------------------4----------------|

G|-------------------------------0-0-----0-----1-1-1-0-----------------------|
D|----1-1-----1----3-3-----3----------3----------------3\1-------------------|
A|---------1------------3----------------------------------------------------|
E|---------------------------------------------------------------------------|

G|-------------------------------0-0-----0-----1-1-1-0-1-3-------------------|
D|----1-1-----1----3-3-----3----------3--------------------------------------|
A|---------1------------3----------------------------------------------------|
E|---------------------------------------------------------------------------|


Verse 2:

G|---------------------------------------------------1----1--3---------------|
D|---1--1--1--------1--1--1-------1--1--1------------------------------------|
A|------------1--------------1-------------1---------------------------------|
E|---------------------------------------------------------------------------|

G|---------------------------------------------------1----1--3---------------|
D|---1--1--1--------1--1--1-------1--1--1------------------------------------|
A|------------1--------------1-------------1---------------------------------|
E|---------------------------------------------------------------------------|


Pre-Chorus:

G|-----------------------------------------1------3--------------------------|
D|-----------------------------3-----1---------------------------------------|
A|--3------1-----------------------------------------------------------------|
E|---------------4------3----------------------------------------------------|


Chorus:

G|-------3---1---------------------------------------------------------------|
D|---1----------------------------------------------1------------------------|
A|---------------1-------------------1--2---3---1-------1-------1-1--1-1--1--|
E|--------------------4----3----4---------------------------4----------------|


Bridge:

G|------------------------------------------------------------0--0-1--1-3--3-|
D|--------------------------------3--3-1--1-------------3--3-----------------|
A|-----------4\1--1--3--3----------------------------------------------------|
E|--4---4------------------3--3--------------4--4-3--3-----------------------|


Chorus:

G|----------------------------------------------------------3---1--3--- ------|
D|---1--3-1-0---1-0-------0------------------------------3-------------------|
A|------------------3-------3-1----3-1------1--------3-5---------------------|
E|-------------------------------------4------4-3----------------------------|


************************************

| \ Slide down
|

************************************

Almost there ...

Sign in to get your own page with links to favourite songs and more. You are just one click away...

Login with Facebook Login with Google