Log in

One click and you are in

Login with Facebook Login with Google

Why sign up and log in

Guitar Tabs Explorer
Misc Cartoons bass tabs for Avatar the last airbender - leaves from the vine

Avatar The Last Airbender - Leaves From The Vine bass tab by Misc Cartoons

Misc Cartoons bass tabs for Avatar the last airbender - leaves from the vine

Bass tabs

Tuning: Standard (E A D G)

G|9--9-7-6--9-9-7-6--6--6-7-6-4-2--6-6-4-2---|
D|-------------------------------------------|
A|-------------------------------------------|
E|-------------------------------------------|


G|9--9-7-6--9-9-7-6--6--6-7-6-4-2------------|
D|-------------------------------------------|
A|-------------------------------------------|
E|-------------------------------------------|

G|--------------------------------------------|
D|--------------------------------------------|
A|7--7-5-4--7-7-5-4--2-4-4--4-2-0--4-4-4--2-0-|
E|--------------------------------------------|

G|-------------------------------------------|
D|-------------------------------------------|
A|7--7--7-5-4--7-7-5-4--4--4-2-0--4-4-2-0----|
E|-------------------------------------------|

i didn't see this song for bass so i thought imma make one myself

i hope it helped and that it isnt confusing this is my first tab
so yeh again sorry if it is confusing

Almost there ...

Sign in to get your own page with links to favourite songs and more. You are just one click away...

Login with Facebook Login with Google