Log in

One click and you are in

Login with Facebook Login with Google

Why sign up and log in

Guitar Tabs Explorer
Misc Cartoons bass tabs for Avatar the last airbender - four seasons

Avatar The Last Airbender - Four Seasons bass tab by Misc Cartoons

Misc Cartoons bass tabs for Avatar the last airbender - four seasons

Bass tabs

Tuning: Standard (E A D G)


                     Win ter Spring  Su mmer and  Fall
G|-------------------------------------|----------------------------------------|
D|-------------------------------------|----------------------------------------|
A|-----------3--------3---5----6-------|-----------3--------3---5----6----------|
E|-3----6----------------------------3-|-3----6----------------------------3----|

 Win  ter Spring  Su mmer and Fall Four sea sons   four        loves
G|-------------------------------------|---------------------------------------------|
D|-------------------------------------|---------------------------------------------|
A|-----------3--------3---5----6-------|-----------3--------3---5----6----5----------|
E|-3----6----------------------------3-|-3----6--------------------------------6---3-|
 Four sea sons   four        loves
G|---------------------------------------------|
D|---------------------------------------------|
A|-----------3--------3---5----6----5----------|
E|-3----6--------------------------------6---3-|


G A#  C   C D  D# G
Winter spring summer and fall.
G A#  C   C D  D# G
Winter spring summer and fall.
G  A# C  C D D# G
Four seasons four loves.
G  A# C  C D D#   G
Four seasons four loves.

Almost there ...

Sign in to get your own page with links to favourite songs and more. You are just one click away...

Login with Facebook Login with Google