Anastasia - Quando Viene Dicembre by Cartoons Music

Anastasia - Quando Viene Dicembre chords by Cartoons Music

Guitar chords with lyrics

Tuning: EADGBE

Intro:
Am E C7 Am Am/F Am E

Verse:
Am   E   Am/C Dm
Feste e balli, fantasie
Dm/F  Am    Dm/F E
É il ricordo di sempre
Am  E   A/C D
Ed un canto vola via
Dm/F  Am  E  Am
Quando viene dicembre

Chorus:
Dm      Am
Sembra come un attimo
Dm       Am  A
Dei cavalli s'impennano
Dm/G     Am
Torna quella melodia
B         E
Che il tempo portò via

 Pre Solo Riff:
 Dm        Am   E
e|-----0-1--0^1^0--------------------|
B|---3------------3--1--0----0-------|
G|--2-------------2--2----2------1---|
D|-0-------------------------2---2---|
A|-------------------0---------------|
E|---------------------------0-------|

 Solo:
e|--------5-7-7^8^7^5-7---------------------9-12-12/15-15-13-------|
B|-------5--------------9-5-------0------10------------17-15-------|
G|------5------------------------------9---------------------------|
D|-2/7-----------------------------/11-----------------------------|
A|-----------------------------------------------------------------|
E|-----------------------------------------------------------------|

e|----13\---10\---8---7---5---7--7^8^7-5-7-4------------------------|
B|-------------------------------------------5----------------------|
G|--14----10----9---7---5---7------------------4-4-7----------------|
D|------------------------------------------------------------------|
A|------------------------------------------------------------------|
E|------------------------------------------------------------------|

e|--------5-7-8-/7----/10----/13-----/9------/12------14-----------|
B|------5----------9------12-----15---10-10---14-14---15-----------|
G|--5--------------------------------------------------------------|
D|----7------------------------------------------------------------|
A|-----------------------------------------------------------------|
E|-----------------------------------------------------------------|

e|------14^15-17-13-13--------13-12^13^12--------------------------|
B|----15---------------15-----------------15-13-12-----12\---------|
G|--14--------------------14-----------------------14--13\--13-----|
D|----------------------------------------------------------14-----|
A|-----------------------------------------------------------------|
E|-----------------------------------------------------------------|

e|-----------------------------------------------------------------|
B|--------12-12^13^12----------------------------------------------|
G|--13-14-------------14-12----------------------------------------|
D|--------------------------15-14----------------------------------|
A|-----------------------------------------------------------------|
E|-----------------------------------------------------------------|

Verse:
Dm      Am
Sembra come un attimo
Dm       Am  A
Dei cavalli s'impennano
Dm/G     Am
Torna quella melodia
B       E
Nella memoria mia

Outro:
A#m   F   A#/D D#m
Forse un giorno tornerò
D#m/F# A#m   D#m F
Il mio cuore lo sente
A#m F  A#/D D#m
Ed allora capirò
D#m/F# A#m  F A#m
Il ricordo di sempre
D#m     A#m
Ed un canto vola via
D#m  A#m   F A#m
Quando viene dicembre



************************************

| / Slide up
| \ Slide down

Other versions of Anastasia - Quando Viene Dicembre

Alternative guitar chords and tabs for Anastasia - Quando Viene Dicembre by Cartoons Music

Find guitar tabs and chords

A B C D E F G H I J K L M N O P Q R S T U V W X Y Z #