Log in

One click and you are in

Login with Facebook Login with Google

Why sign up and log in

Guitar Tabs Explorer
Misc Cartoons guitar tabs for Ah megamisama - open your mind

Ah Megamisama - Open Your Mind tab by Misc Cartoons

Misc Cartoons guitar tabs for Ah megamisama - open your mind

Guitar tabs

A chord diagramE MajorE||-------------------|---------------------|---------------------|
A chord diagramBB||-------------------|---------------------|---------------------|
A chord diagramG+G||-------------------|---------------------|---------1-----------|
A chord diagramD MajorD||-------------------|-----2------------2--|--2--4-----2-----2-2-|
A chord diagramA augmentedA||---------------2-2-|--2-----2-0-0--2-----|---------------------|
A chord diagramE MajorE||-------------------|---------------------|---------------------|
  Q    S S Q.        Q.     Q    S S    Q    A chord diagramE MajorE  Q    S S    Q    A chord diagramE MajorE  Q.
------------------|------------------|-------------------|-----------------|
------------------|------------------|--0----------------|-----------------|
--2----1----------|------------------|-------2--0--------|-----------------|
---------4-2------|--L-----------2-2-|---------------4-2-|--0----2--2------|
------------------|------------------|-------------------|-----------------|
------------------|------------------|-------------------|-----------------|


  Q.     Q    A chord diagramE MajorE     Q    A chord diagramE MajorE  Q    S S    A chord diagramE MajorE  E.  S A chord diagramE MajorE  A chord diagramE MajorE  A chord diagramE MajorE     A chord diagramE MajorE  E.  S Q    A chord diagramE MajorE
-----------------|-------------------|--------------------|-------------------|
-----------------|-------------------|--------------------|-------------------|
-----------------|-------------------|--------------------|---------1---------|
--L--------------|-------------------|-----2-----------2--|--2--4-----2-------|
-----------------|---------------2-2-|--2------4-0--4-----|-------------------|
-----------------|-------------------|--------------------|-------------------|


  E.  S A chord diagramE MajorE  A chord diagramE MajorE  S S S S    Q.     Q    A chord diagramE MajorE     A chord diagramE MajorE  E.  S S S A chord diagramE MajorE  A chord diagramE MajorE
----------------------|-----------------|---------------------|
--------0--L--2-0-----|-----------------|---------------------|
--1---2-----------2---|-----------------|---------------------|
--------------------4-|--2------2-------|--2--2---2---2-2-----|
----------------------|-----------------|-----------4---------|
----------------------|-----------------|---------------------|


  A chord diagramE MajorE  E.  S S S Q       A chord diagramE MajorE  A chord diagramE MajorE  A chord diagramE MajorE  A chord diagramE MajorE  E.  S    S S Q    Q.
--------------------|--------------------|------------------|
--------------------|--0-----------------|------------------|
-----------1--------|-----2--1-----------|--1---------------|
--2--2---4---4-2----|-----------4--2---2-|----4-2----2------|
--------------------|--------------------|------------------|
--------------------|--------------------|------------------|

  A chord diagramE MajorE  E.  S S S A chord diagramE MajorE  A chord diagramE MajorE     A chord diagramE MajorE  E.  S S S Q       A chord diagramE MajorE  A chord diagramE MajorE  A chord diagramE MajorE  Q.
---------------------|--------------------|------------------|
---------------------|---------0-----0----|--3--1--0---------|
---------------------|-----------1-2------|-----------0------|
--2--2---2---2-2-----|--2--2--------------|------------------|
-----------4---------|--------------------|------------------|
---------------------|--------------------|------------------|


  Q.     A chord diagramE MajorE  A chord diagramE MajorE  S S    Q    A chord diagramE MajorE  Q.        Q    A chord diagramE MajorE  S S A chord diagramE MajorE  A chord diagramE MajorE     Q.     Q    S S
-------------------|-----------------|--------------------|------------------|
---------0---------|-----------------|--------------------|------------------|
--1---------2------|-----------------|--------------1--2--|------------------|
---------------6-2-|--2----4--4------|--4-------2-4-------|--4------2----1-2-|
-------------------|-----------------|--------------------|------------------|
-------------------|-----------------|--------------------|------------------|


  Q.     S S A chord diagramE MajorE  A chord diagramE MajorE     Q.     Q    A chord diagramE MajorE     Q.     A chord diagramE MajorE  A chord diagramE MajorE  S S    Q    A chord diagramE MajorE  A chord diagramE MajorE  A chord diagramE MajorE  A chord diagramE MajorE
-------------------|---------0-------|-------------------|-------------------|
-------------------|--4-----------4--|--0------0---------|-------------------|
-------------1--2--|-----------------|------------2--1---|-------------------|
--2------2-4-------|-----------------|-----------------4-|--2----------2--1--|
-------------------|-----------------|-------------------|----------2--------|
-------------------|-----------------|-------------------|-------------------|


  Q    S S Q.        Q    S S Q.        Q    A chord diagramE MajorE  S S A chord diagramE MajorE  A chord diagramE MajorE     Q    A chord diagramE MajorE  Q    S S
------------------|------------------|--------------------|-------------------|
------------------|------------------|--------------------|-------0-----------|
---------1-1------|--2----1----------|--------------1--2--|-------------------|
--2----4----------|---------4-2------|--2-------2-4-------|--4-------2----1-2-|
------------------|------------------|--------------------|-------------------|
------------------|------------------|--------------------|-------------------|


  Q.     S S A chord diagramE MajorE  A chord diagramE MajorE     Q.     Q    A chord diagramE MajorE     Q    S S Q.        A chord diagramE MajorE  A chord diagramE MajorE  A chord diagramE MajorE  Q.
-------------------|---------0-------|------------------|--0-----0---------|
----------------0--|--4-----------4--|--4----2-0-2------|-----4-----0------|
-------------1-----|-----------------|------------------|------------------|
--2------2-4-------|-----------------|------------------|------------------|
-------------------|-----------------|------------------|------------------|
-------------------|-----------------|------------------|------------------|


  A chord diagramE MajorE  A chord diagramE MajorE  A chord diagramE MajorE  A chord diagramE MajorE  A chord diagramE MajorE  S S    Q.     A chord diagramE MajorE  A chord diagramE MajorE  S S    A chord diagramE MajorE  A chord diagramE MajorE  A chord diagramE MajorE  Q.        H.
---------------------|-------------------|------------------|---------------|
-----------0---------|-------------------|------------------|---------------|
-----1--2-----2--1---|-------------------|------------------|---------------|
--2----------------4-|--2------2---------|-----2--1--2------|--2------------|
---------------------|---------------2-2-|--2---------------|---------------|
---------------------|-------------------|------------------|---------------|


  H.              H.              Q    A chord diagramE MajorE  Q    S S    A chord diagramE MajorE  A chord diagramE MajorE  S S A chord diagramE MajorE  A chord diagramE MajorE  A chord diagramE MajorE
---------------|---------------|-------------------|---------------------|
---------------|---------------|-------------------|---------------------|
---------------|---------------|-------------------|---------------------|
---------------|---------------|-------------------|-----2------------2--|
---------------|---------------|---------------2-2-|--2-----2-0-0--2-----|
---------------|---------------|-------------------|---------------------|


  A chord diagramE MajorE  E.  S A chord diagramE MajorE  A chord diagramE MajorE  S S    Q    S S Q.        Q.     Q    S S    Q    A chord diagramE MajorE  Q    S S
---------------------|------------------|------------------|-------------------|
---------------------|------------------|------------------|--0----------------|
---------1-----------|--2----1----------|------------------|-------2--0--------|
--2--4-----2-----2-2-|---------4-2------|--2-----------2-2-|---------------4-2-|
---------------------|------------------|------------------|-------------------|
---------------------|------------------|------------------|-------------------|


  Q    A chord diagramE MajorE  Q.        Q.     Q    A chord diagramE MajorE     Q    A chord diagramE MajorE  Q    S S    A chord diagramE MajorE  E.  S A chord diagramE MajorE  A chord diagramE MajorE  A chord diagramE MajorE
-----------------|-----------------|-------------------|--------------------|
-----------------|-----------------|-------------------|--------------------|
-----------------|-----------------|-------------------|--------------------|
--0----2--2------|--2--------------|-------------------|-----2-----------2--|
-----------------|-----------------|---------------2-2-|--2------2-0--2-----|
-----------------|-----------------|-------------------|--------------------|


  A chord diagramE MajorE  E.  S Q    A chord diagramE MajorE     E.  S A chord diagramE MajorE  A chord diagramE MajorE  S S S S    Q.     Q    A chord diagramE MajorE
-------------------|----------------------|-----------------|-----||
-------------------|--------0--0--2-0-----|-----------------|-----||
---------1---------|--1---2-----------2-1-|-----------------|-----||
--2--4-----2-------|----------------------|--2------2-------|-----||
-------------------|----------------------|-----------------|-----||
-------------------|----------------------|-----------------|-----||


okey fukers this is at least a part of this beautifull song i learn to read a freaking
for this so be thanksfull k? in a couple of days i will complete it and post the GP file
u find errors let me know k? c ya!
PD: im not very sure if it fits with the song but u will get it and remenber that u can

Almost there ...

Sign in to get your own page with links to favourite songs and more. You are just one click away...

Login with Facebook Login with Google