Log in

One click and you are in

Login with Facebook Login with Google

Why sign up and log in

Guitar Tabs Explorer
Misc Cartoons bass tabs for Adventure time distant lands - eternity with you

Adventure Time Distant Lands - Eternity With You bass tab by Misc Cartoons

Misc Cartoons bass tabs for Adventure time distant lands - eternity with you

Bass tabs

Tuning: Standard (E A D G)


Intro:
"turns out this broken glass will not be healing"
G|----------------------------------------------------|
D|---1---1---1-3---8-8---8-6-6---6-5-5---5-6-6---6-3--|
A|-3---3---3------------------------------------------|
E|----------------------------------------------------|

G|----------------------------------------------------|
D|-8-8---8-6-6---6-5-5---5-6-6---6-3-----1---1---1-3--|
A|-------------------------------------3---3---3------|
E|----------------------------------------------------|

Verse 1:
"but honestly I think you are the coolest"
G|--------------------------------------------------------------|
D|--------------------------------------------------------------|
A|---------1-1-1-1-3-3-3-4--4--4---------1-1-1-1-3-3-3-4--4--4--|
E|-4-4-4-4-----------------------4-4-4-4------------------------|

G|----------------------------------------------|
D|----------------------------------------------|
A|---------1-1-1-1-3-3-3-4--4--4-------1---1-3--|
E|-4-4-4-4-----------------------4---4----------|


Chorus:
"yeah, all I really wanna do"
G|-------------------------------------------------------------------|
D|-----------------------------------------------------------6-8/10--|
A|-8--8--6-8-6-----------/11--10---8--8--6-8-6-----------6/8---------|
E|--------------4--4--4-------------------------4--4--4--------------|

G|--------------------------------12-------------------------------------|
D|--------------------------13------------------------------1---1---1-3--|
A|-8--8--6-8-6-----------11----10-----8--8--6-8-6--8/11---3---3---3------|
E|--------------4--4--4--------------------------------------------------|


Verse 2:
"but honestly I think you are the coolest"
G|--------------------------------------------------------------|
D|--------------------------------------------------------------|
A|---------1-1-1-1-3-3-3-4--4--4---------1-1-1-1-3-3-3-4--4--4--|
E|-4-4-4-4-----------------------4-4-4-4------------------------|

G|----------------------------------------------|
D|----------------------------------------------|
A|---------1-1-1-1-3-3-3-4--4--4-------1---1-3--|
E|-4-4-4-4-----------------------4---4----------|


Chorus:
"yeah, all I really wanna do"
G|-------------------------------------------------------------------|
D|-----------------------------------------------------------6-8/10--|
A|-8--8--6-8-6-----------/11--10---8--8--6-8-6-----------6/8---------|
E|--------------4--4--4-------------------------4--4--4--------------|

G|--------------------------------12-------------------------------------------/13-|
D|--------------------------13------------------------------1---1---1-3---/15------|
A|-8--8--6-8-6-----------11----10-----8--8--6-8-6--8/11---3---3---3----------------|
E|--------------4--4--4------------------------------------------------------------|

G|--------------------------------12-------------------------------------------/13-|
D|--------------------------13------------------------------1---1---1-3---/15------|
A|-8--8--6-8-6-----------11----10-----8--8--6-8-6--8/11---3---3---3----------------|
E|--------------4--4--4------------------------------------------------------------|


************************************
| /  Slide up
| \  Slide down
************************************

Almost there ...

Sign in to get your own page with links to favourite songs and more. You are just one click away...

Login with Facebook Login with Google