Log in

One click and you are in

Login with Facebook Login with Google

Why sign up and log in

Guitar Tabs Explorer
Misc Cartoons bass tabs for Adventure time - everything stays

Adventure Time - Everything Stays bass tab by Misc Cartoons

Misc Cartoons bass tabs for Adventure time - everything stays

Bass tabs

Tuning: Standard (E A D G)

Key: G

Difficulty: Intermediate

The verse can vary a bit, depending on the version you're listening to.

Verse 1:

G|---------0h2-----4--2-|--------7-9-----14--|-14--------------|-----------------|
D|----------------------|------9-------------|-----10-9-10----5|---------------0-|
A|------2-------3-------|--------------------|----------10--7--|-5--3--2---------|
E|-3--------------------|-3----------10------|-12--------------|----------5------|

        g g
G|-----------------0-|--------0h2----5--|-----------------|----------------|
D|------0h2-----2----|------------------|---------------2-|-5------5-------|
A|-----------3-------|------2-----6-----|-7------7-3------|-----------5----|
E|-3-----------------|-3----------------|------0----------|------3---------|


Verse 2:

G|---------0h2-----4--2-|--------0h2----5---|-14--------------|-----------------|
D|----------------------|-------------------|-----10-9-10----5|---------------0-|
A|------2-------3-------|------2-----6------|----------10--7--|-5--3--2---------|
E|-3--------------------|-3-----------------|-12--------------|----------5------|

        g g
G|-----------------0-|--------0h2-8-----|-----------------|----------------|
D|------0h2-----2----|---------------10-|---------------2-|-5------5-------|
A|-----------3-------|------2-----------|-7------7-3------|-----------5----|
E|-3-----------------|-3----------------|------0----------|------3---------|


Chorus:

G|---------|-------------|----------|----------------|---------------|-------------|---------|------|
D|---------|-----2-----2-|-7--------|------10--9-----|---------------|-----9--7----|-7-----1-|-2----|
A|-3---3---|-------------|-5--------|-------------10-|-10---10--9--7-|-5--------10-|-5--3--2-|------|
E|---------|-0------0----|-----7---7|-8----8---------|-8-------------|-7-----------|---------|-0----|


************************************

| g  Grace note
| h  Hammer-on

************************************

Almost there ...

Sign in to get your own page with links to favourite songs and more. You are just one click away...

Login with Facebook Login with Google