Log in

One click and you are in

Login with Facebook Login with Google

Why sign up and log in

Guitar Tabs Explorer
Misc Cartoons guitar tabs for Adventure time - ending acoustic

Adventure Time - Ending Acoustic tab by Misc Cartoons

Misc Cartoons guitar tabs for Adventure time - ending acoustic

Guitar tabs

A chord diagramD/F#D/F# 2times       A chord diagramG+G 2times       A chord diagramC/GC/G 4times
e----2----------|------3--------|---------------|
B-------3-------|------3--------|---1-----------|
G----2----------|---------------|---------------|
D---------------|---------------|-------2-------|
A---------------|----2----------|-----------3---|
E----2----------|-------3-------|-----------3---|

Next circle:

  A chord diagramD/F#D/F# 2times      A chord diagramE minor 7Em7 2times      D4 4times      A chord diagramC/GC/G 4times      A chord diagramD/F#D/F# 2times     A chord diagramG+G hold
e----2----------|-------3-------|---------------|---------------|----2----------|-------3------||
B-------3-------|-------3-------|---3-----------|---1-----------|-------3-------|-------3------||
G----2----------|---------------|---------------|---------------|----2----------|--------------||
D---------------|---2-----------|-------4-------|-------2-------|---------------|--------------||
A---------------|---2-----------|-----------5---|-----------3---|---------------|----2---------||
E----2----------|---------------|-----------5---|-----------3---|----2----------|-------3------||

Almost there ...

Sign in to get your own page with links to favourite songs and more. You are just one click away...

Login with Facebook Login with Google