Log in

One click and you are in

Login with Facebook Login with Google

Why sign up and log in

Guitar Tabs Explorer
Misc Cartoons bass tabs for Adventure time - come along with me

Adventure Time - Come Along With Me bass tab by Misc Cartoons

Misc Cartoons bass tabs for Adventure time - come along with me

Bass tabs

Tuning: Standard (E A D G)


G|---------------------------------------------------------------------------|
D|------------10--7--7-9---11-9---7--9--9-7---7-9--11-9--7--9----------------|
A|--7-8---10---------------------------------------------------9-12---12--10-|
E|---------------------------------------------------------------------------|

G|---------------------------------------------------------------------------|
D|--10--10-------------------------------------------------------------------|
A|---------7--5--------------------------------------------------------------|
E|---------------------------------------------------------------------------|

Almost there ...

Sign in to get your own page with links to favourite songs and more. You are just one click away...

Login with Facebook Login with Google