Log in

One click and you are in

Login with Facebook Login with Google

Why sign up and log in

Guitar Tabs Explorer
Misc Cartoons Tabs Tabs bass tabs for Batta - chase jojos bizarre adventure op 6

Batta - Chase Jojos Bizarre Adventure Op 6 bass tab by Misc Cartoons Tabs Tabs

Misc Cartoons Tabs Tabs bass tabs for Batta - chase jojos bizarre adventure op 6

Bass tabs

Song opens with guitar intro:


Verse:

G|-----------------------------------------------------------------------------------------------|
D|-----------------------------------------------------------------------------------------------|
A|---------------------------------------------------------------/5-5-5-5-5-5-5-5/5-5-5-5-5-5-5-5|
E|-2-2-2-2-2-2-2-2/2-2-2-2-2-2-2-2/0-0-0-0-0-0-0-0/0-0-0-0-0-0-0-0/------------------------------|

G|-------------------------------------------------------------------------------------------------|
D|-------------------------------------------------------------------------------------------------|
A|-------------------------------------------------------------------------------------------------|
E| 1-1-1-1-1-1-1-1/1-1-1-1-1-1-1-1/2-2-2-2-2-2-2-2/2-2-2-2-2-2-2-2/0-0-0-0-0-0-0-0/0-0-0-0-0-0-0-0-|

G|------------------------------------------------------------------------------------------------|
D|------------------------------------------------------------------------------------------------|
A| 5-5-5-5-5-5-5-5/5-5-5-5-5-5-5-5/---------------------------------------------------------------|
E|-------------------------------/1-1-1-1-1-1-1-1/1-1-1-1-1-1-1-1/2-2-2-2-2-2-2-2/2-2-2-2-2-2-2-2-|

G|------------------------------------------------------------------------------------------------|
D|------------------------------------------------------------------------------------------------|
A|-------------------------------|5-5-5-5-5-5-5-5/5-5-5-5-5-5-5-5/--------------------------------|
E| 0-0-0-0-0-0-0-0/0-0-0-0-0-0-0-0/-------------------------------|1-1-1-1-1-1-1-1/1-1-1-1-1-1-1-1|


G|-----------------------------------------------------------------------------------------------|
D|-----------------------------------------------------------------------------------------------|
A|---------------------------------------------------------------/5-5-5-5-5-5-5-5/5-5-5-5-5-5-5-5|
E| 2-2-2-2-2-2-2-2/2-2-2-2-2-2-2-2/0-0-0-0-0-0-0-0/0-0-0-0-0-0-0-0/------------------------------|

G|-----------------------------------------------------------------------------|
D| 3-3-3-3-3-3-3-3/------------------------------------------------------------|
A|---------------/2--2-2--4--4-4-/---------------/2--2-2-3--3-3-/4--4--4--4--4-|
E|-------------------------------/2--2-2--2--2-2-/-----------------------------|


Chorus:

G|------------------------------------------------------------------|
D|------------------------------------------------------------------|
A|-5-5-5-5-5-5-5-5-5/-----------------------------------------------|
E|-----------------|1-1-1-1-1-1-1-1/2-2-2-2-2-2-2-2/0-0-0-0-0-0-0-0-|(x2)

G|--------------------------------------------------------------------------------------------------|
D|--------------------------------------------------------------------------------------------------|
A|-6-6-6-6-6-6-6-6/5-5-5-5-5-5-5-5/4-4-4-4-4-4-4-4/3-3-3-3-3-3-3-3/2-2-2-2-2-2-2-2/-4-4-4-4-4-4-4-4-|
E|--------------------------------------------------------------------------------------------------|

G|------------------------------------------------------------------------------------------|
D|------------------------------------------------------------------------------------------|
A|-5--4-----/--------/5--4----/--------/5--4----/--------/5--4----/-------------------------|
E|-----2---/-----2--/-----2--/-----2--/-----2--/-----2--/-----2--/--------------------------|


************************************

| /  Slide up

Almost there ...

Sign in to get your own page with links to favourite songs and more. You are just one click away...

Login with Facebook Login with Google