Log in

One click and you are in

Login with Facebook Login with Google

Why sign up and log in

Guitar Tabs Explorer
Misc Bass bass tabs for Star wars

Bass tabs

Star wars theme

-----0---------5--0---------5--0----------
--------3-2-0--------3-2-0--------3-2-3-0-
-3-3--------------------------------------
------------------------------------------

----------------------------------------------0--
---------3-2-0---0h2p0----------------3-2-0-----0
---0-----------3-------0-2------0-----------3----
3-----1----------------------3-----1-------------

                  By: Ibanez

Other versions of Star Wars

Star wars themeBass tabs

Almost there ...

Sign in to get your own page with links to favourite songs and more. You are just one click away...

Login with Facebook Login with Google