Log in

One click and you are in

Login with Facebook Login with Google

Why sign up and log in

Guitar Tabs Explorer
Misc Bass bass tabs for Rudolph the red nosed reindeer

Rudolph The Red Nosed Reindeer bass tab by Misc Bass

Misc Bass bass tabs for Rudolph the red nosed reindeer

Bass tabs with lyrics

Well folks, here's my version of a Christmas classic. The chord voicings
  are pretty straight-forward, hopefully enough so that you'll be able to
  share this with your loved ones (along with a few other songs) on
  Christmas eve... Enjoy!


              RUDOLPH THE RED-NOSED REINDEER
             Arranged for guitar by Mark Leslie
           Arranged for Bass Guitar by Adam Sorini
           * * * * * * * * * * * * * * * * * * * *


        <----------------------------- repeat -->
         F     Em     Dm    G
  e|--------|---------------------|------------------|
  B|-----0--|--1---------0--------|------------------|
  G|--2-----|--2--2------0--0-----|--2---------2--0--|
  D|--------|--3-----3---2-----2--|--3--3------2-----|
  A|--------|---------------------|--5-----5---3-----|
  E|--------|---------------------|------------------|

   You Know Dasher + Dancer +  Prancer + Vixen....

  G|--------|--5---------4--------|--2---------------|----------|----------|
  D|--------|---------------------|------------5-----|--3---2---|----------|
  A|--------|---------------------|------------------|----------|--5---3---|
  E|--------|---------------------|------------------|----------|----------|


    Em        Am       D7         G   G7

  |-----------------|---------------|------------------|-------------------|
  |-----------------|---------------|------------------|-------------------|
  |-----------------|--2------2--4--|--5--5---5--4--2--|-0------0----------|
  |--2---2---2---2--|--2------2-----|--4------4--------|-0------3----------|
  |--3-------3------|--3------------|--5------5--------|-2------2----------|
  |--5-------5------|---------------|------------------|--------3----------|

    But do you re- call  the most famous reindeer of all?

  |-----------------|---------------|------------------|-------------------|
  |--2-----------2//|//7------7--9--|-10 10--10--9--7--|-5-----------------|
  |-----------------|---------------|------------------|----------------2--|
  |-----------------|---------------|------------------|--------3---5------|

    C                       AmFlat5 G

  |--------------------|-----------|---------------------|-----------------|
  |-----------------1--|-----------|------------------1--|---0-------------|
  |--0---2---0---------|--2----0---|--0--2--0--2--0---2--|---0-------------|
  |--2-----------2-----|--2--------|--2-----------2---1--|---0-------------|
  |--3-----------3-----|--3--------|--3-----------3------|-----------------|
  |--------------3-----|-----------|---------------------|-----------------|

   Rudolph the red nosed reindeer, had a ver-y shin-y   nose

  |-----------------2--|--------2--|-----------------2^5-|---4-------------|
  *-------2----5-------|----2-5----|--------2-----5------|-------5---------|
  *--3-----------------|--3--------|--3------------------|-----------5---2-|
  |--------------------|-----------|---------------------|-----------------|


   G7          G9  G   G             C

  |-------------------|----------|-------------------------|---------------|
  |----------------0--|----------|-------------------------|---------------|
  |-----0-------------|--2----0--|--0---2---0---2---0---2--|---0-----------|
  |--3-----3---0------|--0-------|--0---------------1------|---2-----------|
  |--2---------2------|--2-------|--2---------------2------|---3-----------|
  |--3---------3------|----------|-------------------------|---------------|

   And if you ev--er  saw it, you would ev-en say it  glows

  |-------------------|----------|-------------------------|---------------|
  |----------------3--|-/7----5--|-------------------------|------2--5--2--|*
  |------2-----5------|----------|--------2------5------4--|---3-----------|*
  |--3----------------|----------|--3----------------------|---------------|


    C                         AmFlat5 G

  |--------------------|-----------|------------------------|--------------|
  |-----------------1--|-----------|---------------------1--|---0----------|

  |--0---2---0---------|--2----0---|--0--2---0----2--0---2--|---0----------|
  |--2-----------2-----|--2--------|--2--------------2---1--|---0----------|
  |--3-----------3-----|--3--------|--3--------------3------|--------------|
  |--------------3-----|-----------|------------------------|--------------|

   All of the other  reindeer used to laugh + call him names
    G7          G9  G   G             C   C

  |-------------------|----------|-------------------------|---------------|
  |----------------0--|----------|----------------------3--|---1-----1-----|
  |-----0-------------|--2----0--|--0---2---0---2----------|---0-----3-----|
  |--3-----3---0------|--0-------|--0---------------0------|---2-----2-----|
  |--2---------2------|--2-------|--2---------------2------|---------3-----|
  |--3---------3------|----------|------------------3------|---------------|

   They never let poor  Rudolph  join in  any  reindeer games
    F         C        Dm   G  G7  C   C7

  |-----------------|---------------|----------------|---------------------|
  |----------1------|---------------|----------------|---------2-----------|
  |--2---2---2---2--|--0---------0--|-----2---0------|---------3-----------|
  |--3-------3------|--2----2----2--|--3------0---3--|--2------2-----------|
  |--3--------------|--3---------3--|--5------2------|--3------------------|
  |-----------------|---------------|----------------|--3------------------|

   Then one fogg-y  Christmas eve  Santa came to  say

  |-----------------|---------------|----------------|----------------3----|
  |-----------------|-----2---5--2--|-----3----------|-------2----5--------|
  |------0---3---0--|--3------------|--5----------2--|--3------------------|
  |--1--------------|---------------|---------3------|---------------------|


    G      G9  G    Ddim  Am7   Bm7     G  G7  G

  |-----------------|---------------|--------------------|-----------------|
  |-----------------|--0---0---0----|--1----1----0-------|-----------------|
  |----------0---2--|--0-------1----|--0---------2----2--|--0--------------|
  |--0---2---0------|--0-------0----|--2---------0-------|--0----3----0----|
  |--2-------2------|---------------|--0-----------------|--2---------2----|
  |--3--------------|---------------|--------------------|------------3----|

   Rudolph with your nose so bright Won't you guide my sleigh tonight?

  |-----------------|---------------|--------------------|-----------------|
  |-----------------|---------------|--------------------|---------3--5----|
  |------2----------|---------------|-------3----5----2--|------2----------|
  |--3-------3---5--|--3---3---4--4-|--5-----------------|--3--------------|


    C                         AmFlat5  G

  |--------------------|-----------|--------------------------|------------|
  |-----------------1--|-----------|-----------------------1--|---0--------|
  |--0---2---0---------|--2----0---|--0---2---0---2---0----2--|---0--------|
  |--2-----------2-----|--2--------|--2---------------2----1--|---0--------|
  |--3-----------3-----|--3--------|--3---------------3-------|------------|
  |--------------3-----|-----------|--------------------------|------------|

   Then how the reindeer loved him  as they shouted out with  glee

  |-------------------
  |----see---------
  |--the-begining----
  |----"C"-part---------


    G         BmFlat5 G7  G          G   C

  |----------------------|----------|--------------------------|--0--------|
  |-------------------0--|----------|-----------------------3--|--1--------|
  |------0---------------|--2----0--|--0----2---0---2---0---0--|--0--------|
  |--3-------3---0-------|--3-------|--0----------------0---0--|--2--------|
  |--2-----------2-------|--2-------|--2----------------2---2--|--3--------|
  |--3-----------3-------|----------|-------------------3------|-----------|

   Rudloph the red nosed reindeer you'll go down in his--to---ry!

  |-------------------...                -------|-----------|
  |-----see------------...                ---5--|-----------|
  |---the-begining-------...                ----|--3--------|
  |----"G"-part-------...                ------|-----------|


  *_*_*_*_*_*_*_*_*_*_*_*_*_*_*_*_*_*_*_*_*_*_*_*_*_*_*_*_*_*_*_*_*_*_*
             27th Floor Productions
  Mark & Nancy Leslie    PO Box 11737     email: mleslie@use.com
              Indpls, IN 46201
  *_*_*_*_*_*_*_*_*_*_*_*_*_*_*_*_*_*_*_*_*_*_*_*_*_*_*_*_*_*_*_*_*_*_*
             Funky Cat Productions
  Adam Sorini                 email: smiley2545@aol.com
      http://members.aol.com/smiley2545/home.html
  *_*_*_*_*_*_*_*_*_*_*_*_*_*_*_*_*_*_*_*_*_*_*_*_*_*_*_*_*_*_*_*_*_*_*

Almost there ...

Sign in to get your own page with links to favourite songs and more. You are just one click away...

Login with Facebook Login with Google