Log in

One click and you are in

Login with Facebook Login with Google

Why sign up and log in

Guitar Tabs Explorer
Misc Bass bass tabs for Pink panther theme

Bass tabs

Hey, this is joel burkett, i just tabbed the bridge to one of your files, the bass tabs for
"the pink panther". I used Mike Sabet's tabs, plus my own at the endto make this tab file.
The original looks like this:

Song Title: Pink Panther Theme
----------------------------------------------


G----------------------------------------
D-------------------3-2-----3-1----------
A------2-3------2-3-----2-3--------3/2---
E-4-5-------4-5-----------------------5--

Submitted by: Mike Sabet (msabet@vt.edu)


my revision looks like this
G---------------------------------------------------------------------------------------||
D*-------------------3-2-----3-1----------*---------------------------------------------||
A*------2-3------2-3-----2-3--------3/2---*------9/8---5/4---3/2--3-2--3-2--3-2--3/2----||
E--4-5-------4-5-----------------------5--------------------------------------------5---||

Almost there ...

Sign in to get your own page with links to favourite songs and more. You are just one click away...

Login with Facebook Login with Google