Log in

One click and you are in

Login with Facebook Login with Google

Why sign up and log in

Guitar Tabs Explorer
Misc Bass bass tabs for Peter gunn theme

Bass tabs

Name of the song: Theme from Peter Gunn

Posted by:Nik Smith (a.k.a. Two Scoops)

|--------------|----------------|---------------|---------------|
|--------------|----------------|---------------|---------------|
|--------------|----------------|---------------|---------------|        <----------Play this 2 times
|--0-0-2-0---|-3-0-5-3------|-0-0-2-0-----|-3-0-5-3-----|


|--------------|----------------|---------------|---------------|
|--------------|----------------|---------------|---------------|
|-0-0-2-0----|-3-0-5-3------|-0-0-2-0-----|-3-0-5-3-----|
|--------------|----------------|---------------|---------------|


|--------------|----------------|---------------|---------------|
|--------------|----------------|---------------|---------------|
|--------------|----------------|---------------|---------------|
|--0-0-2-0---|-3-0-5-3------|-0-0-2-0-----|-3-0-5-3-----|


|--------------|----------------|---------------|---------------|
|--------------|----------------|---------------|---------------|
|-2-2-2-2----|-2-2-2-1------|-0-0-0-0-----|-0-0----------|
|--------------|----------------|---------------|-------3-3----|


|--------------|----------------|---------------|---------------|
|--------------|----------------|---------------|---------------|
|--------------|-0-0-1-1------|---2-------2--|---------------|
|-0-0-4-4----|----------------|---------------|--0---------0-|

Almost there ...

Sign in to get your own page with links to favourite songs and more. You are just one click away...

Login with Facebook Login with Google