Ode To Joy by Misc Bass

Ode To Joy bass tab by Misc Bass

Bass tabs

From: w_knaus@foma.wsc.mass.edu (unknown)
  To: dwm3@po.cwru.edu
  Subject: Ode To Joy Bass Tab
  Date: Wed, 18 Dec

  A classic for the holidays:
  G-9-9-10-12-12-10-9---------9-9----------
  D------------------12-10-10-12--12-12----
  D----------------------------------------
  E----------------------------------------
  Oops The D is really an A!
  Alternate ending:
  G-9---------------
  D---12-10-10------
  A-----------------
  E-----------------

  Bridge:
  G-------9------9-10-9-------9-10-9----------12-
  D-12-12--10-12--------10-12--------12-10-12----
  A----------------------------------------------
  E----------------------------------------------
  Any Requests I'll do my best-w_knaus@foma.wsc.mass.edu
  BiLl KnAuS-RECIPROCITY bassist

Find guitar tabs and chords

A B C D E F G H I J K L M N O P Q R S T U V W X Y Z #