Log in

One click and you are in

Login with Facebook Login with Google

Why sign up and log in

Guitar Tabs Explorer
Misc Bass bass tabs for Mash theme

Bass tabs

Song Title: Theme to M*A*S*H
----------------------------------------------

 M*A*S*H

g--3--1--0-1---0-1--0------------0-----0------0---------0-------------------
d----------------------3------------3------3-----3---1------3---1--3--1---3-
a---------------------------------------------------------------------------
e---------------------------------------------------------------------------

g-------------------------------------0-|
d---1---0-----3--1-----0--1--0---3------|
a---------------------------------------|
e---------------------------------------|

Everyone knows this is the theme to M*A*S*H, but hardly anyone knows that

it is actually a song called "Suicide Is Painless" (With a melody of

'Cause suicide is painless / it brings on many changes ...'). A perfect

acoustic piece for your TV theme repertoire.

FaDoing@aol.com!



Submitted by: Rikhav D=Shah (FaDoing@aol.com)

Almost there ...

Sign in to get your own page with links to favourite songs and more. You are just one click away...

Login with Facebook Login with Google