Log in

One click and you are in

Login with Facebook Login with Google

Why sign up and log in

Guitar Tabs Explorer
Misc Bass bass tabs for Happy birthday

Bass tabs

Tabbed in 4/4 time, would probably work better in another time though.
The other one is pertty good, but this is perfect and requires less
hand movement. Standard tuning. You can do the last note as a vibrato,
or use a tremolo bar or wah-wah pedal if you want, but it's not necessary.

|----------------|----------------|
|------------5---|4---------------|
|5-5-7---5-------|--------5-5-7---|
|----------------|----------------|


|----------------|----7---4-------|
|----7---5-------|------------5---|
|5---------------|5-5-------------|
|----------------|----------------|


|------------5-5-|4---------------|
|4---------------|----5---7---5---|
|----7-----------|----------------|
|----------------|----------------|

Almost there ...

Sign in to get your own page with links to favourite songs and more. You are just one click away...

Login with Facebook Login with Google