Log in

One click and you are in

Login with Facebook Login with Google

Why sign up and log in

Guitar Tabs Explorer
Misc Bass bass tabs for Green acres theme

Bass tabs

Song Title: Green Achres Theme Song
----------------------------------------------


|-----------------2--2-----------------------1--1-------------------------------
|--------2--4--2--------------------2--4--2--------------------2--4--2----------
|--0--4-----------------------0--4-----------------------0--4-------------------
|-------------------------------------------------------------------------------


------------------2--4--2-------------------------------------------------------
------------0--4-----------------2-----0-----0--2--2----------------------------
------------------------------------4-----2-------------------------------------
--------------------------------------------------------------------------------


Sweet!

jtenuto@concentric.net


Submitted by: Justin Tenuto (jtenuto@concentric.net)

Almost there ...

Sign in to get your own page with links to favourite songs and more. You are just one click away...

Login with Facebook Login with Google