Log in

One click and you are in

Login with Facebook Login with Google

Why sign up and log in

Guitar Tabs Explorer
Misc tabs for Georgia camp meeting

Tabs

with SMTP id <AA03076>; Mon, 1 Mar 1993 11:39:57 -0800
	id AA20359; Mon, 1 Mar 93 11:39:54 -0800


More tab from acoustic guitar list...

Georgia Camp Meeting
arr. Lasse Johansson
transcribed by Richard Darsie (darsie@eecs.ucdavis.edu)

This tune was popular in the 1890s and was a sort of "proto-ragtime"
piece.  I have tried to indicate rhythm by placing 4 vertical lines
in each measure to indicate the 4 main beats in that measure.
Please let me know if you find this an effective system.

Intro:


E--3-|--5-8-------------|----------------|----------------|---------|-
B----|------------1-----|----------------|----------------|-1-------|-
G----|--|-----0-2-------|----------------|--0-0---0-0--0--|-0---0---|-
D----|--|---------------|----------------|--3-3---3-3--3--|-2---3---|-
A----|--|---|---|---|---|-0-3-0---0-3----|----------------|-3-------|-
E----|--|---|---|---|-3-|-|---|-3-|---|--|--3-3---3-3--3--|-|---3---|-
        |   |   |   |     |   |   |   |     |   |   |  |    | | | |


Sec. 1:

E--------------------|---0-----0----|------------|------------|-
B-----------------0--|-1-----1------|-3--1-------|----1-------|-
G----2-0-----0--2----|-0------------|-2--2-----2-|-0--------0-|-
D----------2---------|--------------|----3-----3-|----2-----2-|-
A----3---2---0-------|-3---2---0----|----|-----|-|-3--|-----|-|-
E----|---|---|--3----|-|---|---|--3-|-1--|--1--|-|-|--|--3--|-|-
     |   |   |  |      |   |   |  |   |  |  |  |   |  |  |  |


E--------------------|---0-----0----|------------|-0-------------|-
B-----------------0--|-1-----1------|-3--1--0----|---3---0-------|-
G----2-0-----0--2----|-0------------|-2--2-----2-|----------2--0-|-
D----------2---------|--------------|----0-----0-|-----0---------|-
A----3---2---0-------|-3---2---0----|----|-----|-|-----|----0--2-|-
E----|---|---|--3----|-|---|---|--3-|-2--|--2--|-|-3---|----|--|-|-
     |   |   |  |      |   |   |  |   |  |  |  |   |   |    |  |


E-------------------|---0-----0----|------------|----------3-|-
B----------------0--|-1-----1------|-3--1-------|----1-----|-|-
G---2-0-----0--2----|-0------------|-2--2-----2-|-0--------|-|-
D---------2---------|--------------|----3-----3-|----2-----|-|-
A---3---2---0-------|-3---2---0----|----|-----|-|-3--|-----|-|-
E---|---|---|--3----|-|---|---|--3-|-1--|--1--|-|-|--|--3--|-|-
    |   |   |  |      |   |   |  |   |  |  |  |   |  |  |  |

                                                       ____________
                                                       | 1.
                                                       |

E----5-8-------------|----------------|----------------|----------||-
B--------------1-----|----------------|----------------|-1-------*||-
G----|-----0-2-------|----------------|--0-0---0-0--0--|-0---0---*||-
D----|---------------|----------------|--3-3---3-3--3--|-2---3---*||-
A----|---|---|---|---|-0-3-0---0-3----|----------------|-3-------*||-
E----|---|---|---|-3-|-|---|-3-|---|--|--3-3---3-3--3--|-|---3----||-
     |   |   |   |     |   |   |   |     |   |   |  |    | | | |

   _______________
   | 2.
   |                 Sec. 2:

E--------3-3-3--0--||---------------|--3-1----------|---------------|-
B-----1------------||*--------0--3--|--0-----3----0-|-------0-------|-
G-----0--|---|--|--||*--0--2--0--0--|----------2----|---2-------2---|-
D-----2--|---|--|--||*-----3-----3--|------3------3-|-----1-------1-|-
A-----3--|---|--|--||*-----|-----|--|------|------|-|-----|-------|-|-
E-----|--|---|--|--||---3--|--3--|--|--3---|---3--|-|-2---|---2---|-|-
      |  |   |  |       |  |  |  |     |   |   |  |   |   |   |   |


E--------------|------------|--------------|----------------|-
B---------0--1-|----1-----1-|-0------0-1---|-------0--------|-
G--0--0-2------|-2--2-----2-|-0--0-2-------|---2-------2----|-
D---------|--|-|----0-----0-|----3-------3-|-----1-------1--|-
A-----|---|--|-|----|-----|-|----|-------|-|-----|-------|--|-
E--3--|---|--|-|-2--|--2--|-|-3--|---3---|-|-2---|---2---|--|-
   |  |   |  |   |  |  |  |   |  |   |   |   |   |   |   |


E--------3-3-3--0--|--------------|--3-1----------|-----------------|-
B-----1------------|--------0--3--|--0-----3----0-|-------0-------0-|-
G-----0--|---|--|--|--0--2--0--0--|----------2----|---2-------2-----|-
D-----2--|---|--|--|-----3-----3--|------3------3-|-----1-------1---|-
A-----3--|---|--|--|-----|-----|--|------|------|-|-----|-------|---|-
E-----|--|---|--|--|--3--|--3--|--|--3---|---3--|-|-2---|---2---|---|-
      |  |   |  |     |  |  |  |     |   |   |  |   |   |   |   |


E----------------|----------------|-----------1--0--|-0------0-----|-
B--1--1-1--0-----|---1-----3-1----|----1------2--2--|---3------3---|-
G--0--0-------3--|-2-----2-----2--|--0-----0--------|--------------|-
D----------0--2--|-----3-------0--|------2-------2--|-----4------3-|-
A-----3----|--|--|-----|-------|--|------|----0--|--|-0---|------|-|-
E--3--|----|--|--|-1---|---2---|--|--3---|----|--|--|-|---|--3---|-|-
   |  |    |  |    |   |   |   |     |   |    |  |    |   |  |   |


   _______________   ____________               ____________
   | 1.              | 2.                       | 3.
   |                 |                          |

E--------3-3-3--0---||-------------||          ||--------------||-
B-----1------------*||--1----------|| Repeat   ||--1-----1-----||-
G-----0--|---|--|--*||--0-----0----|| Sec. 1   ||--0-----3-----||-
D-----2--|---|--|--*||--2-----3----|| with 3rd ||--2-----2-----||-
A-----3--|---|--|--*||--3----------|| ending   ||--3-----3-----||-
E-----|--|---|--|---||--|--|--3--|-||          ||--|--|--|--|--||-
      |  |   |  |       |  |  |  |                 |  |  |  |


Sec. 3:

E-||---------------|-1-3---1--------|--------------|--------------|-
B-||*--1--3--1-----|-1-----1--------|----6---------|-1----1---1---|-
G-||*--2--2--2-----|-2-----2--------|-7-----9-7----|-2------------|-
D-||*-----3-----3--|-----3-------3--|----8------8--|----3---2---0-|-
A-||*-----|-----|--|-----|-------|--|----|------|--|----|---|---|-|-
E-||---1--|--1--|--|-1---|----1--|--|-6--|--6---|--|-1--|---|---|-|-
       |  |  |  |    |   |    |  |    |  |  |   |    |  |   |   |


E-----------0-----|-1--3-5--------|-3-----3-1-----|--0-----8-----|-
B------1--3-------|-1-------------|-0-----0-------|--1-----8-----|-
G---3--3----------|-2-------------|-0-----0-------|--0-----9-----|-
D------2-------2--|----3----------|------------0--|--------10----|-
A---3--|-------|--|----|----0-----|----0--2----|--|--3-----|-----|-
E---|--|--3----|--|-1--|-------4--|-3--|--|----|--|--|--|--|--|--|-
    |  |  |    |    |  |    |  |    |  |  |    |     |  |  |  |


E---------------|-1-3---1--------|--------------|-5-----------|-
B---1--3--1-----|-1-----1--------|-------6-8----|-5--9-8------|-
G---2--2--2-----|-2-----2--------|-7--9---------|-6-----------|-
D------3-----3--|-----3-------3--|----8------8--|----7------7-|-
A------|-----|--|-----|-------|--|----|------|--|----|------|-|-
E---1--|--1--|--|-1---|----1--|--|-6--|--6---|--|-5--|---5--|-|-
    |  |  |  |    |   |    |  |    |  |  |   |    |  |   |  |

                                                   ___________________
                                                   | 1.       | 2.
                                                   |          |

E----------------|--5-----5------|----5----0-3-----|--1-------||-1--|-
B--------6-8-----|--1-----3------|--3--------------|--1---1--*||-1--|-
G--7--9----------|-------------0-|--4------3-------|--2---3--*||-2--|-
D-----8-------8--|--3-----4--0---|------3-------2--|------2--*||----|-
A-----|-------|--|--------0--|---|------|--3----|--|------3---||----|-
E--6--|--6----|--|--1--3--|--|---|--4---|--|----|--|--1-|-|-|-||-1--|-
   |  |  |    |     |  |  |  |      |   |  |    |     | | | |
ⓘ Guitar tab for 'Georgia Camp Meeting' by Misc, a jazz artist from Montreal, Canada.

Almost there ...

Sign in to get your own page with links to favourite songs and more. You are just one click away...

Login with Facebook Login with Google