Log in

One click and you are in

Login with Facebook Login with Google

Why sign up and log in

Guitar Tabs Explorer
Miossec tabs for Moments de plaisir

Guitar tabs with lyrics

+---------------------------------------------------------------------+
|  Miossec -                                                          |
| "Des moments de plaisir"                                            |
|  Album "Boire"                                                      |
+---------------------------------------------------------------------+
| From Stephane Genaud, email : genaud@galaad.u-strasbg.fr            |
+---------------------------------------------------------------------+

Mesure : 4/4 , | = 4 temps
{Ritournelle A}
                                         <   <
--------------------------------|--------6---8-6--------------|
--8-6---------------------------|--8-6-----8-----9---8--------|
------8-7-8---5-----------------|------8-----------7---8------|
------------8---5-8---5-----5---|-----------------------------|
--------------------8---6-8-----|-----------------------------|
--------------------------------|-----------------------------|
|       |       |       |       |        |        |      |
DO m   Sol#    La#              DO m    Sol#     La#

{Ritournelle B}
                                         <   <   <    <
--3-1---------------------------|--------6---8-6-11-8-13-11-------------|
------4-3-4---1-----------------|--8-6-----8----------------13-11-------|
------------3---0-3---0-----0---|------8--------------------------12----|
--------------------3---1-3-----|------------------------------------13-|
--------------------------------|---------------------------------------|
--------------------------------|---------------------------------------|
|       |       |       |       |        |        |         |
DO m   Sol#    La#              DO m    Sol#     La#       Re#


Do m        Sol#         La#
Oh tu ..
   Do m      Sol#      La#
de ..
   Do m        Sol#        La#
ou ..
Do m         Sol#     La#
Dis ..

{Ritournelle A}

verse

{Refrain}

Do  Lam              Sol
  Mais ..
                                 Do
Qu'est ..
  La m                Sol
Mais ..
                                         Do
Qu'est ..

 La m                 Sol
Mais ..
                                 Do
Qu'est ..
  La m               Sol
Mais ..
                                         Dom
Qu'est ..

{Ritournelle A}

Oh tu ..
De ..
A chord diagramA augmentedA ..
Un .....

{Refrain}

|          |         |          |
La#        La#       La#        La#

{
|          |
Sol        Sol
Des ..

|          |
Fa         Fa
Des ..
} (4x)
|          |
La #       Do


{Ritournelle A}

{Ritournelle B}


Autre doigte
------------

--3-1---------------------------|--3-1---6-3-8-6--------------|
------4-3-4---1-----------------|------4----------9---8-------|
------------3---0-3---0-----0---|-------------------7---8-----|
--------------------3---1-3-----|-----------------------------|
--------------------------------|-----------------------------|
--------------------------------|-----------------------------|
|       |       |       |       |        |        |      |
DO m    Sol d   La d            DO m     Sol d    La d


                                         <   <   <    <
--3-1---------------------------|--------6---8-6-11-8-13-11-------------|
------4-3-4---1-----------------|--8-6-----8----------------13-11-------|
------------3---0-3---0-----0---|------8--------------------------12----|
--------------------3---1-3-----|------------------------------------13-|
--------------------------------|---------------------------------------|
--------------------------------|---------------------------------------|
|       |       |       |       |        |        |         |
DO m    Sol d   La d

Other versions of Moments De Plaisir

Moments de plaisirChords

Almost there ...

Sign in to get your own page with links to favourite songs and more. You are just one click away...

Login with Facebook Login with Google