Log in

One click and you are in

Login with Facebook Login with Google

Why sign up and log in

Guitar Tabs Explorer
Miossec tabs for Evoluer en troisieme division

Evoluer En Troisieme Division tab by Miossec

Miossec tabs for Evoluer en troisieme division

Guitar tabs

Transcription to 'Evoluer en troisi=E8me division' by 'Miossec'
 by Benoit Caby.


Miossec :Evoluer en 3=E8 division

I made this tab quickly then some mistakes are possible.  Sorry.
if you correct this please inform me.
thanks

E-----------------------------------------------------------------------
B-----------------------------------------------------------------------
G-----------------------------------------------------------------------
D---4--4--4--4-----5--4--5--7--7--7--7--5--4--4-------------------------
A---5--5--5--5-----5--5--5--5--5--5--5--5--5--3-------------------------
E-----------------------------------------------------------------------
  play 4times and repeat
  this bar on 4th             melody
E---|---------------------||--------------------------------------------
B---|---------------------||--------7--5--3--2-----7--5--3--2--3--------
G---|--------------------*||--------------------------------------------
D---|--2--2--2--0--0--0--*||--------------------------------------------
A---|--3--3--3--2--2--2---||--------------------------------------------
E---|---------------------||--------------------------------------------


E-------------------------------------||--------------------||----------
B---7--5--3--2-----7--5--7--10--8--7--||--------------------||----------
G-------------------------------------||--------------------||*---------
D-------------------------------------||--------------------||*---------
A-------------------------------------||--------------------||----------
E-------------------------------------||--------------------||----------


 chords I didn't write rithms
		                   4x                  2x
E----------------------||--------|---------||---------------------------
B----------------------||--------|---------||---------------------------
G---------------------*||--------|--------*||---------------------------
D---4--2--2--2--------*||--4--4--|--2--2--*||---------------------------
A---5--4--0--4---------||--5--5--|--4--4---||---------------------------
E----------------------||--------|---------||---------------------------

Almost there ...

Sign in to get your own page with links to favourite songs and more. You are just one click away...

Login with Facebook Login with Google