Log in

One click and you are in

Login with Facebook Login with Google

Why sign up and log in

Guitar Tabs Explorer
Minutemen tabs for Tour spiel

Guitar tabs

Written by Mike Watt
Recorded by Minutemen on "Project Mersh" (SST)
File format: tab
Transcription: Gary Von Colln

The main chord progression is A chord diagramFF - A chord diagramA augmentedA - C.
Verse Riff

e-|--1--1--1--1--------|--0--0--0--0--3--3--|--------------------
B-|--1--1--1--1--------|--2--2--2--2--5--5--|--------------------
G-|--2--2--2--2--------|--2--2--2--2--5--5--|--------------------
D-|--3--3--3--3--------|--2--2--2--2--5--5--|--------------------
A-|--3--3--3--3-----3--|--0--0--0--0--3--3--|--------------------
E-|--1--1--1--1-/5-----|--------------------|--------------------


Chorus Riff

e-|--2--------2--------2-----|--3--------3--------3-----|----------------
B-|-----3--------3--------3--|-----3--------3--------3--|----------------
G-|--------2--------2--------|--------2--------2--------|----------------
D-|--------------------------|--------------------------|----------------
A-|--------------------------|--------------------------|----------------
E-|--------------------------|--------------------------|----------------


Words and Song Structure

[Over Verse Riff]

Born in the shed with ....

[Over Chorus Riff]

It's a just a tour spiel, tour spiel, tour spiel

[Over Verse Riff]

I dreamed I was E. Bloom but ....


[Solo - A chord diagramA minorAm pentatonic (not tabbed here)]

[Turn around, play these chords, open positions: A chord diagramG+G - A chord diagramA minorAm - A chord diagramFF - A chord diagramC majorC]

[Over Chorus Riff]

tour spiel, tour spiel, ....

[Over Verse Riff]

Well you've got your guitar ....

[Over Chorus Riff]

Tour Spiel, Tour ....

Almost there ...

Sign in to get your own page with links to favourite songs and more. You are just one click away...

Login with Facebook Login with Google