Log in

One click and you are in

Login with Facebook Login with Google

Why sign up and log in

Guitar Tabs Explorer
Minutemen bass tabs for The anchor

Bass tabs

"The Anchor" by MINUTEMEN
originally from "What makes a man start fires "


Intro
   >  >
G:-------7-------
D:---7-5-5-------
A:-5-5-----------
E:---------------
Fig.1 (verse)       Fig.2 (interlude 1)
G:-------7-----7-------  G:-------8--------------
D:----7-----5-----7----  D:----9-----9--7--6-----
A:-5-------------------  A:-7--------------------
E:---------------------  E:----------------------

           |Play 1st, |Play   |
           |2nd, 3rd |4th   |
Fig.3 (interlude 2)  |times   |time   |
G:--------------------|----------|-7-7-7-7-|
D:-5----5----5----5---|----------|---------|
A:--------------------|-5-5-5-5--|---------|
E:--------------------|----------|---------|

Notes:

> == strum

Dan Capper, DJC@liyorkrd.li.co.uk

Almost there ...

Sign in to get your own page with links to favourite songs and more. You are just one click away...

Login with Facebook Login with Google