Log in

One click and you are in

Login with Facebook Login with Google

Why sign up and log in

Guitar Tabs Explorer
Minutemen bass tabs for Its expected i m gone

Bass tabs

Minutemen-It's expected I'm gone
Tabbed by BigBangBert


Tuning: E A D G
Main part (use popping technique)

 only one time   guitar   guitar   guitar    guitar
G|------------|-----------------------------------------------------------|
D|------------|-----------------------------------------------------------|
A|-5-4---5-4--|-----------4-----------4------------4------5-4-------------|
E|-----5-----5|-------------5-----------5------------5--------5-----------|


Bridge (no popping)

G|------------------------------------------------------------------------|
D|------------------------------------------------------------------------|
A|-7-5-4-5-4--------------------------------------------------------------|
E|-----------5-5-3-2-3-2-0----5-5-5---5-5-5-------------------------------|


Guitar solo
That's it! Listen to the song!


The order:

Main part 2x

Bridge 1x
Main part 2x

Bridge 1x

Easy and fun song!
Enjoy it!

Almost there ...

Sign in to get your own page with links to favourite songs and more. You are just one click away...

Login with Facebook Login with Google