Log in

One click and you are in

Login with Facebook Login with Google

Why sign up and log in

Guitar Tabs Explorer
Minutemen bass tabs for Bob dylan wrote propaganda songs

Bob Dylan Wrote Propaganda Songs bass tab by Minutemen

Minutemen bass tabs for Bob dylan wrote propaganda songs

Bass tabs

Tuning: Standard (E A D G)


Intro:

G|--------------------|--------|------------------|--------|
D|------2----2----2---|-3-3-3-3|-----2----2----2--|-3-3-3-3|
A|-2h3----3-----3---3-|--------|-2h3---3-----3---3|--------|
E|--------------------|--------|------------------|--------|

G|--------------------|--------|-3--3--3-3--3--3-3--3|
D|------2----2----2---|-3-3-3-3|-3--3--3-3--3--3-3--3|
A|-2h3----3-----3---3-|--------|---------------------|
E|--------------------|--------|---------------------|
Pre-Verse:

G|--------------------|--------|------------------|--------|
D|------2----2----2---|-3-3-3-3|-----2----2----2--|-3-3-3-3|
A|-2h3----3-----3---3-|--------|-2h3---3-----3---3|--------|
E|--------------------|--------|------------------|--------|

G|--------------------|--------|-3-3-3-3-3-3|
D|------2----2----2---|-3-3-3-3|-3-3-3-3-3-3|
A|-2h3----3-----3---3-|--------|------------|
E|--------------------|--------|------------|


Verse 1: x2

G|--------------------|--------|------------------|--------|
D|------2----2----2---|-3-3-3-3|-----2----2----2--|-3-3-3-3|
A|-2h3----3-----3---3-|--------|-2h3---3-----3---3|--------|
E|--------------------|--------|------------------|--------|

G|--------------------|--------|------------|
D|------2----2----2---|-3-3-3-3|------------|
A|-2h3----3-----3---3-|--------|-1-1-1-1-1-1|
E|--------------------|--------|------------|

Chorus: x2

G|--------------------|--------|------------------|--------|
D|------2----2----2---|-3-3-3-3|-----2----2----2--|-3-3-3-3|
A|-2h3----3-----3---3-|--------|-2h3---3-----3---3|--------|
E|--------------------|--------|------------------|--------|

G|--------------------|--------|-3-3-3-3-3-3|
D|------2----2----2---|-3-3-3-3|-3-3-3-3-3-3|
A|-2h3----3-----3---3-|--------|------------|
E|--------------------|--------|------------|

Pre-Verse:

G|--------------------|--------|------------------|--------|
D|------2----2----2---|-3-3-3-3|-----2----2----2--|-3-3-3-3|
A|-2h3----3-----3---3-|--------|-2h3---3-----3---3|--------|
E|--------------------|--------|------------------|--------|

G|--------------------|--------|-3-3-3-3-3-3|
D|------2----2----2---|-3-3-3-3|-3-3-3-3-3-3|
A|-2h3----3-----3---3-|--------|------------|
E|--------------------|--------|------------|


Verse 2: x2

G|--------------------|--------|------------------|--------|
D|------2----2----2---|-3-3-3-3|-----2----2----2--|-3-3-3-3|
A|-2h3----3-----3---3-|--------|-2h3---3-----3---3|--------|
E|--------------------|--------|------------------|--------|

G|--------------------|--------|------------|
D|------2----2----2---|-3-3-3-3|------------|
A|-2h3----3-----3---3-|--------|-1-1-1-1-1-1|
E|--------------------|--------|------------|


Chorus: x2

G|--------------------|--------|------------------|--------|
D|------2----2----2---|-3-3-3-3|-----2----2----2--|-3-3-3-3|
A|-2h3----3-----3---3-|--------|-2h3---3-----3---3|--------|
E|--------------------|--------|------------------|--------|

G|--------------------|--------|-3-3-3-3-3-3|
D|------2----2----2---|-3-3-3-3|-3-3-3-3-3-3|
A|-2h3----3-----3---3-|--------|------------|
E|--------------------|--------|------------|


Outro:

G|-1--1--1--1-1--1|-5--5--5--5-5--5|-3--3--3--3-3--3|-6--6--6--6-6--6|
D|-1--1--1--1-1--1|-5--5--5--5-5--5|-3--3--3--3-3--3|-6--6--6--6-6--6|
A|----------------|----------------|----------------|----------------|
E|----------------|----------------|----------------|----------------|

G|-10--10--10--10-10--10|-13--13--13--13-13--13|--12-12-12b|
D|-10--10--10--10-10--10|-13--13--13--13-13--13|-----------|
A|----------------------|----------------------|-----------|
E|----------------------|----------------------|-----------|

************************************
| h  Hammer-on
| b  Bend
************************************

Almost there ...

Sign in to get your own page with links to favourite songs and more. You are just one click away...

Login with Facebook Login with Google