It Follows by Minor Threat

It Follows bass tab by Minor Threat

Bass tabs

Verse: (4x)
G ----------------------------------------
D ---------------------222222222222-------
A --222210-555----------------------------
E --------------222-----------------------

Chorus: (3x)              Then: (1x)
G ------------------------------  --------------------------------
D ------------------------------  --------------------------------
A ----------------77777777------  ----------------99999999--------
E --3333-5555-------------------  --3333-5555---------------------

Verse: (5x)
G ------------------------------------
D ----------------------(2)2222222----
A --222210--555-----------------------
E ---------------222------------------
                   ( )Let ring 1st time

Chorus: (3x)              Then: (1x)
G ------------------------------  --------------------------------
D ------------------------------  --------------------------------
A ----------------77777777------  ----------------99999999--------
E --3333-5555-------------------  --3333-5555---------------------

Then: (2x)
G ------------------------------------
D --2---------------------------------
A -----2------3-----------------------
E --------33----3----22222222--------

G ------------------------------------  ----------------------------------------------------
D ------------------------------------(2x)--------------------------------4444444444444444----
A ------------------------------------  -------------------------2222-----------------------
E --2222--4444--5555--2222------------  --2222--4444--5555----------------------------------

Chorus: (4x)
G ------------------------------
D ------------------------------
A ----------------77777777------
E --3333-5555-------------------

Find guitar tabs and chords

A B C D E F G H I J K L M N O P Q R S T U V W X Y Z #