In My Eyes by Minor Threat

In My Eyes bass tab by Minor Threat

Bass tabs

-----------------------------------------------------------------------------
			   IN MY EYES - Minor Threat
-----------------------------------------------------------------------------

There is another version of this song that is close, but not completely correct.
So, here is what I think is the correct version.

Song: In My Eyes
Artist: Minor Threat
Album: In My Eyes - EP

Standard Tuning: EADG

Intro
G|---------------|-------------------------------|
D|---------------|-------------------------------|
A|-7-6-5-0-5-6-7-|-7-7-7-7-7-7-7-7-7-6-5-0-5-6-7-|
E|---------------|-------------------------------|

G|-----------9-|
D|---------9---|
A|-----7-9-----|
E|--0----------|

Verse
G|-------------------------------|
D|-------------------------------|
A|------------------3---66---8-8-|
E|-3333333333333333---5----6-----|

Chorus
G|-------------------------|
D|-------------------------|
A|---5-5---5-5-------------|
E|-3-----3-----55555557777-|

Find guitar tabs and chords

A B C D E F G H I J K L M N O P Q R S T U V W X Y Z #