Bottled Violence by Minor Threat

Bottled Violence bass tab by Minor Threat

Bass tabs

Verse:
G:----------------------------------------------------------------|
D:----------------------------------------------------------------|
A:-----------3--5--3-----3----------------------------------------|
E:--5-5-5-5----------1-1----5-5-5---------------------------------|

Chorus:
G:----------------------------------------------------------------|
D:----------------------------------------------------------------|
A:------3--3--3--1------------------------------------------------|
E:--3-------------------------------------------------------------|

Find guitar tabs and chords

A B C D E F G H I J K L M N O P Q R S T U V W X Y Z #