Betray by Minor Threat

Betray tab by Minor Threat

Guitar tabs

Tuning: Standard (E A D G B E)

Key: A

Difficulty: Novice

Betray - Minor Threat - Out of Step

Listen to the song for timing, it's a little weird at times

Intro:
e|-----------------------------------------------------------------------------|
B|-----------------------------------------------------------------------------|
G|-7---------------------------------------------------------------------------|
D|-7---7-----------------------------------------------------------------------|
A|-5---7-----------------------------------------------------------------------|
E|-----5-----------------------------------------------------------------------|

Pre Verse:
e|------------------------------------------------------------------------------|
B|------------------------------------------------------------------------------|
G|-2---7/9--9--9--9--9--9--9--9/12-12-12-12/14-14-14-14/16-16-16-16-16-16-16-16-|
D|-2---7/9--9--9--9--9--9--9--9/12-12-12-12/14-14-14-14/16-16-16-16-16-16-16-16-|   x2
A|-0---5/7--7--7--7--7--7--7--7/10-10-10-10/12-12-12-12/14-14-14-14-14-14-14-14-|
E|------------------------------------------------------------------------------|

Verse:
e|-----------------------------------------------------------------------------|
B|-----------------------------------------------------------------------------|
G|-44444-----------------------------------------------------------------------|
D|-44444----5--7-2-2-2-2-2-2-2-2-----------------------------------------------|    x4
A|-22222----5--7-2-2-2-2-2-2-2-2-----------------------------------------------|
E|----------3--5-0-0-0-0-0-0-0-0-----------------------------------------------|
-
Chorus:
e|-----------------------------------------------------------------------------|
B|-----------------------------------------------------------------------------|
G|-------55------------77------------------------------------------------------|
D|-------55------------77------------------------------------------------------|
A|-------33------------55------------------------------------------------------|
E|-0-3-5---------0-3-5---------------------------------------------------------|

Outro:
e|-----------------------------------------------------------------------------|
B|-----------------------------------------------------------------------------|
G|------5/7---7-7--7--10\9-9---------------------------------------------------|
D|------5/7---7-7--7--10\9-9---------------------------------------------------|
A|------3/5---5-5--5---8\7-7---------------------------------------------------|
E|-0-0-------------------------------------------------------------------------|

End:
e|-----------------------------------------------------------------------------|
B|-----------------------------------------------------------------------------|
G|------5/7----7--7--10-10--9--------------------------------------------------|
D|------5/7----7--7--10-10--9--------------------------------------------------|
A|------3/5----5--5---8--8--7--------------------------------------------------|
E|-0-0-------------------------------------------------------------------------|


Intro
Pre Verse x2
Verse x4
Pre Verse x1
Verse x4
Intro
Chorus x4
Pre Verse x2
Verse x4
Pre Verse x1
Verse x4
Intro
Chorus x4
Pre Verse x2
Intro
Outro x11
End

************************************

| x  Dead note
| g  Grace note
| (n) Ghost note
| h  Hammer-on
| p  Pull-off
| r  Release
| >  Accented note
| t  Tapping
| b  Bend
| br Bend release
| pb Pre-bend
| pbr Pre-bend release
| /  Slide up
| \  Slide down
| ~  Vibrato
| s  Slap
| P  Pop
| PM Palm mute
| TR Trill
| N  Tremolo

************************************

Find guitar tabs and chords

A B C D E F G H I J K L M N O P Q R S T U V W X Y Z #