Log in

One click and you are in

Login with Facebook Login with Google

Why sign up and log in

Guitar Tabs Explorer
Minor Threat tabs for Sob story

Guitar tabs

Minor Threat-Sob Story
By: Erne Z. Soto

Standard tuning
Play each chord as much as needed

I am very sure these are accurate because
I have studied live footage
And got the very exact chords they use.


intro
|-----------------
|-----------------
|-----------------
|---5--7—11---
|---5--7—11---
|---3--5—9----


Verse
|--------------------------------------------
|--------------------------------------------
|-----7--9--------------7--9--12-----------
|--9--7--9--7------9--7--9--12-----3--5-
|--9--5--7--7------9--5--7--10-----3--5-
|--7--------5------7---------------1--3-


chorus
|----------------------------------------------
|----------------------------------------------
|----11-------------------------10—12--
|-9--11---12--9--7--4-----------10—12--
|-9--9----12--9--7--4------------8—10---
|-7-------10--7--5--2-----------------------


riff                                   outro
|-----------------------------------------------
|------------------------------------------------
|----9--8--9-----9--8--9-----9--8--9-------------
|-9--9--8--9--7--9--8--9--6--9--8--9--3--5--7--9-
|-9--7--6--7--7--7--6--7--6--7--6--7--3--5--7--9-
|-7-----------5-----------4-----------1--3--5--7-

Almost there ...

Sign in to get your own page with links to favourite songs and more. You are just one click away...

Login with Facebook Login with Google