Log in

One click and you are in

Login with Facebook Login with Google

Why sign up and log in

Guitar Tabs Explorer
Ministry bass tabs for Thieves

Bass tabs with lyrics

Ministry - The mind is a terrible thing to taste
  For bass guitar. All songs are in standard tuning unless noted otherwise.
  I haven't transcribed Test because I don't have it.

  Thieves

  Intro - You don't have to play the repeated part but I do for fun. You must
  slide down from the 10th fret though in unison with the guitar.
    palm mute the 7's                 x8
  G-------------------------------------------------------|------|
  D*-----------------------------------------------------*|------|
  A*-7-7-7-7-7-7-7-7-7-7-7-7-7-8---7-7-7-7-7-7-7-7-7-7-7-*|-10\--|
  E-------------------------------------------------------|------|

  Verse                x4
  G--------------------|----------------|------|
  D*-------------------|---------------*|------|
  A*-------7-----------|------7--------*|-10\--|
  E--0--0----0--0-0--1-|-0--0---0--0-0--|------|

  Verse x3 then
  G-------------------|------------------------|
  D-------------------|------------------------|
  A-------7-----------|------7-----------------|
  E-0--0----0--0-0--1-|-0--0---0--0-0--1b-hold-|

  Chorus      x15     x4         x2     x4
  G-------------------|-----------|-------------------|-----------|
  D*-----------------*|*---------*|*-----------------*|*---------*|
  A*-----------------*|*---------*|*-----------------*|*---------*|
  E--0-0-0-1-0-0-0-3--|--0-3-2-1--|--0-0-0-1-0-0-0-3--|--0-3-2-1--|

           x18     x4         x2     x4
  G-------------------|-----------|-------------------|-----------|
  D*-----------------*|*---------*|*-----------------*|*---------*|
  A*-----------------*|*---------*|*-----------------*|*---------*|
  E--0-0-0-1-0-0-0-3--|--0-3-2-1--|--0-0-0-1-0-0-0-3--|--0-3-2-1--|

           x10
  G-------------------|----------|
  D*-----------------*|----------|
  A*-----------------*|----------|
  E--0-0-0-1-0-0-0-3--|-0-1bhold-|

  Intro x4 including slide down from 10th fret.
  Verse x4 including slide down from 10th fret.
  Verse x4 with bend and hold at first fret.
  Whole Chorus sequence.

  Outro            x4
  G------------------------------|------|
  D*----------------------------*|------|
  A*----------------------------*|------|
  E--0-0-0-1-0-0-0-3-0--0-0-0-1--|-1--0-|

  Any comments/questions/suggestions? Mail me.
  ----------
  Benjamin

  "Control your life through insanity" - Cliff Burton

  E-mail: j6872839@ironbark.bendigo.latrobe.edu.au
  URL: http://ironbark.bendigo.latrobe.edu.au/~j6872839/westy.html
  ------------------------------------------------------------------

ⓘ Bass guitar tab for 'Thieves' by Ministry, an industrial metal band formed in 1981 from Chicago, Illinois, USA

Almost there ...

Sign in to get your own page with links to favourite songs and more. You are just one click away...

Login with Facebook Login with Google