Log in

One click and you are in

Login with Facebook Login with Google

Why sign up and log in

Guitar Tabs Explorer
Ministry tabs for Stigmata2

Guitar tabs

> "Stigmata" from The Land of Rape and Honey
>
> Guitar 2
>
> A chord diagramD MajorD -2--2-5--8----------
> A chord diagramA augmentedA -0--0-3--6----------
> A chord diagramE MajorE --------------------
>            ^Bend this chord up

Is this the way everyone else plays this? I do it like this...

-------------|---------------------
-------------|---------------------
-4--4--4--7--|-4--4--4--7--9/10--9-
-4--4--4--7--|-4--4--4--7--9/10--9-
-2--2--2--5--|-2--2--2--5--7/8---7-
-------------|---------------------

----

I think Greg's got it right; this is how I play it:

Stigmata
E----------------------
B----------------------
G----------------------
D--------------8/10----
A---9-9-9-12---6/8-----
E---7-7-7-10-----------
              slide

Almost there ...

Sign in to get your own page with links to favourite songs and more. You are just one click away...

Login with Facebook Login with Google