Log in

One click and you are in

Login with Facebook Login with Google

Why sign up and log in

Guitar Tabs Explorer
Ministry tabs for Psalm69

Guitar tabs

Psalm 69
	(Ministry)

during samples:
E----------------------
B----------------------
G------------------4---
D---2--2-----------4---
A---2--2-----------2---
E---0--0---0-0-0-------
riff:
E------------------------------------------------------------------------
B------------------------------------------------------------------------
G------------------------------------------------------------------------
D--------------6//5--------------------------------6//5------------------
A--------------4//3--------------5//6--------------4//3---5--6---5--4----
E-0-0--0-0-0-0------0-0--0-0-0-0-3//4-0-0--0-0-0-0------0-3//4-0-3//2----


chorus (the way I play it... it's hard to hear *exactly* what's going on)
E------------------------------------------------------------------------
B------------------------------------------------------------------------
G------------------------------------------------------------------------
D------------------------------------7-----------------------------------
A--2----------2----------2-----------5-----------------------------------
E--0--0-0-0-0-0--0-0-0-0-0--0-0-0-0--------------------------------------


outro
E--------------------------------
B--------------------------------
G--------------------------------
D---8-8-8--7-7-7--6-6-6----------
A---6-6-6--5-5-5--4-4-4--9-9-9---
E------------------------7-7-7---

There may be mistakes as I don't have my guitar here,
so send 'em to dany@irvine.com...

Almost there ...

Sign in to get your own page with links to favourite songs and more. You are just one click away...

Login with Facebook Login with Google