Never Believe Solo by Ministry

Never Believe Solo tab by Ministry

Guitar tabs

This is the solo to the song "Never Believe" by Ministry

I noticed there were none of the solos from the Ministry songs that were
posted, so I figured I'ld post this one...because solos are where
Ministry really makes up for the simple main riffs...

This an easy solo for the most part...ya just need to get the timeing
down...

e|-------12----------------------------------------|
B|-11-10----(x10)-11^^10---------10-11^-10---------|
G|-------------------------------------------------|
D|-------------------------------------------------|
A|-------------------------------------------------|
E|-------------------------------------------------|
e|----------------------------------------------11-|
B|----------------------------------12-11-10-12----|
G|-------------------------12-11-10----------------|
D|----------------12-11-10-------------------------|
A|-------12-11-10----------------------------------|
E|-11-10-------------------------------------------|

e|----11-------------------------------------------|
B|-12----14-12----11-------------------------------|
G|-------------12----14-12----11-------------------|
D|-------------------------12----14-12----11-------|
A|-------------------------------------12----14-12^|
E|-------------------------------------------------|

e|-------------------------------------------------|
B|-------------------------------------------------|
G|-------------------------------------------------|
D|-------------------------------------------------|
A|------12^------12^------12^----------------------|
E|-h11~~----h11~~----h11~~----h11~~----------------|
                  (you'll never believe, never...}


Well...thats the way i hear it anyway...
ZoMMboNeZ


______________________________________________________
Get Your Private, Free Email at http://www.hotmail.com

Find guitar tabs and chords

A B C D E F G H I J K L M N O P Q R S T U V W X Y Z #