Log in

One click and you are in

Login with Facebook Login with Google

Why sign up and log in

Guitar Tabs Explorer
Ministry bass tabs for Lay lady lay

Bass tabs

Song Title: Lay Lady Lay
----------------------------------------------

This is my first tab so it may be a bit off. This is off Filth Pig. If you
don't have it, I recommend getting it. It's a great CD.
Enjoy.

Drop-D Tuning
Intro (leads straight into Verse 1)

A--5-3-0---|
D--------5-|


Verse 1 (to Verse 2)

A-----------0000000|----------------|
D--333333333-------|1111111115555555|


Verse 2 (when vocals enter)

A----------|-0000000|--------|-1111111|
D--33333333|3-------|11111111|1-------|

1st & 2nd Chorus (1:32 & 2:25) to Verse

A--33333------|------1-1-|33333-----|--------0|
D-------555555|333333-3-3|-----55555|33333335-|

3rd Chorus (3:04) to Intro

A--0000011111|-----00000|11111-----|---------|11111-----|00000----|
D------------|00000-----|-----33333|333200000|-----00000|-----5---|


Solo (4:33) to Verse 1

A--33333-----|-----11111|33333-----|-----1111|33333-----|-----11111|33333
D-------55555|33333-----|-----55555|00000----|-----55555|33333-----|-----

A-------|--------|
D--55555|33333350|

End

D--5-hold-out----|

Send me any comments/suggestions on this.

Submitted by: Steve Dumas (dumas@ucs.net)

Almost there ...

Sign in to get your own page with links to favourite songs and more. You are just one click away...

Login with Facebook Login with Google