Log in

One click and you are in

Login with Facebook Login with Google

Why sign up and log in

Guitar Tabs Explorer
Ministry chords for Filth pig

Guitar chords

drop-d tuning

 here's the main riff :

   ------------------------------------------------------
   ------------------------------------------------------
   ------------------------------------------------------
   -----3-----3------------------------------------------
   --0--3--0--3--0---------------------------------------
   --0--3--0--3--0---------------------------------------
the change (i guess the chorus):


   ------------------------------------------------------
   ------------------------------------------------------
   ------------------------------------------------------
   -----3-----3--1---1-----------------------------------
   --0--3--0--3--1---1-0---------------------------------
   --0--3--0--3--1---1-0---------------------------------
      this is the part where Al screams "Filth...Pig !!!!!"


questions,comments,suggestions,or if u just want to talk about music,
email me at jtull1@ix.netcom.com ( the third 1 is a one, not an l like
the other two are. :)

Almost there ...

Sign in to get your own page with links to favourite songs and more. You are just one click away...

Login with Facebook Login with Google