Log in

One click and you are in

Login with Facebook Login with Google

Why sign up and log in

Guitar Tabs Explorer
Ministri tabs for Bevo

Guitar tabs

Intro
------------------------------------------------------------|
------------------------------------------------------------|
------------------------------------------------------------|
----------------7-------------------------------------------|
----------5-----7-------------------------------------------|
--777777--------5-------------------------------------------|
riff
------------------------------------------------------------|
------------------------------------------------------------|
------------------------------------------------------------|
------------------------------------------------------------|
--7-5------7-5-------7-5---7--7--5-5------------------------|
------5--8-----5--8------8-----------8----------------------|

strofa (intro)

pre-rit
--------|---------------------------------------------------|
--------|---------------------------------------------------|
-----7--|---------12----------11----------------------------|
-----7--|------12----12----12----12-------------------------|
-----5--|---10-----------9----------------------------------|
--------|---------------------------------------------------|

rit
------------------------------------------------------------|
------------------------------------------------------------|
------------------------------------------------------------|
---5--4-----------------------------------------------------|
---5--5-----------------------------------------------------|

Almost there ...

Sign in to get your own page with links to favourite songs and more. You are just one click away...

Login with Facebook Login with Google