Log in

One click and you are in

Login with Facebook Login with Google

Why sign up and log in

Guitar Tabs Explorer
James Minihan tabs for All alone

Guitar tabs

Title: All Alone
As I sit here watching my life go by. I still can't help
but wonder why. These days go slowley, these days
grow bigger.
Play the intro twice then go slowley into the chorus.
After the chorus, go back into the intro.
That is it. It is easy.

------------------------------------------------------------------------------
------------------------------------------------------------------------------
------------------------------------------------------------------------------
---9-----9/11-----------------------------------------------------------------
-7---7-6--------11-----9-6/7--------------------------------------------------
--------------9----9-5--------------------------------------------------------


------------------------------------------------------------------------------
------------------------------------------------------------------------------
--9--9--6-------9--9--6---------------------------6------4--------------------
--9--9--6--7----9--9--6--7---------6/7--7---------6------4--------------------
--7--6--4--7----7--6--4--7---------6/7--7---------4------2--------------------
-----------5-------------5---------4/5--5-------------------------------------
  4 times each...Again      Then...     3 Times...Again  Once

Almost there ...

Sign in to get your own page with links to favourite songs and more. You are just one click away...

Login with Facebook Login with Google