Log in

One click and you are in

Login with Facebook Login with Google

Why sign up and log in

Guitar Tabs Explorer
Minibosses tabs for Metroid kraid

Guitar tabs

Submitted by: James Thomas Moon
Tabbed by: ak Gitaroo Man
email: alvinoncillo@hotmail.com

well this is the minibosses tab of Kraid Metroid.
this is my first tab so don't freak if something's wrong.
pretty easy to remember and get down.
have fun.

Kraid Tuning: Normal
Metroid Tuning: DADGBe
(although no notes are used on low d string but bass is)

Kraid

 3/4
A chord diagramE MajorE|------------|------------|------------|------------|
b|------------|------------|------------|------------|play
g|------------|15----------|------------|------------|four
d|15----------|------------|17----------|------------|times
a|--------15--|--------16--|--------18--|15------14--|
e|------------|------------|------------|------------|

A chord diagramE MajorE|------------|------------|------------|------------|
b|------------|------------|------------|------------|play
g|13----------|------------|12----------|15----------|two
d|--------13--|15----------|--------13--|--------15--|times
a|------------|--------15--|------------|------------|
e|------------|------------|------------|------------|

A chord diagramE MajorE|------------|------------|------------|------------|
b|------------|------------|------------|------------|play
g|13--13--13--|16--16--16--|15--15--15--|15------17--|four
d|------------|--15--15--15|------------|--141714--14|times
a|--15--15--15|------------|--16--16--16|------------|
e|------------|------------|------------|------------|

A chord diagramE MajorE|------------|15----------|1815--------|------------|
b|------131613|--1613------|----1613----|------1316--|play
g|121315------|------151312|--------1513|121315------|two
d|------------|------------|------------|------------|times
a|------------|------------|------------|------------|
e|------------|------------|------------|------------|

A chord diagramE MajorE|18--16--15--|----15--16--|18--16--15--|----15--16--|
b|------------|18----------|------------|18----------|play
g|------------|------------|------------|------------|two
d|------------|------------|------------|------------|times
a|------------|------------|------------|------------|
e|------------|------------|------------|------------|

repeat first line four times
repeat second line two times, cut off when needed

 4/4
A chord diagramE MajorE|----------------|----------------|----------------|----------------|
b|14--------------|----------------|16--------------|----------------|
g|--------15------|13--------------|----16--13------|----------------|
d|----------------|----15------15--|------------14--|1516------------|
a|----------------|--------16------|----------------|tremelo---------|
e|----------------|----------------|----------------|----------------|

repeat third line four times
repeat fourth line two times
repeat fifth line two times

Metroid

 4/4
A chord diagramE MajorE|----------------|1919191919------|----------------|----------------|
b|1616161616------|-----same-------|1919191919------|----------------|
g|----notes-------|-----thing------|-----same-------|------REST------|
d|----are---------|----------------|-----thing------|----------------|
a|----triplet-----|----------------|----------------|----------------|
e|----notes-------|----------------|----------------|----------------|

A chord diagramE MajorE|----------------|2121212121------|1919191919------|----------------|play
b|1616161616------|-----same-------|-----same-------|----------------|last
g|----same--------|-----thing------|-----thing------|------REST------|two
d|----thing-------|----------------|----------------|----------------|lines
a|----------------|----------------|----------------|----------------|two
e|----------------|----------------|----------------|----------------|times

A chord diagramE MajorE|18------16------|15------13------|16------15------|13------11------|
b|----------------|----------------|----------------|----------------|play
g|----15------13--|----12------10--|----13------12--|----10------8---|two
d|----------------|----------------|----------------|----------------|times
a|----------------|----------------|----------------|----------------|
e|----------------|----------------|----------------|----------------|

A chord diagramE MajorE|----------------|----1---3---4---|6-----------4-3-|4-----------3-1-|
b|------------1---|4---------------|----------------|----------------|
g|0---1---3-------|----------------|----------------|----------------|
d|----------------|----------------|----------------|----------------|
a|----------------|----------------|----------------|----------------|
e|----------------|----------------|----------------|----------------|

A chord diagramE MajorE|------------6---|11--------------|7-------6-------|4-------3-------|
b|4---------------|----------------|----------------|----------------|
g|----------------|----------------|----------------|----------------|
d|----------------|----------------|----------------|----------------|
a|----------------|----------------|----------------|----------------|
e|----------------|----------------|----------------|----------------|

A chord diagramE MajorE|------------3---|6-----------11--|------------3---|----------------|
b|6---------------|----------------|6---------------|4---------------|
g|----------------|----------------|----------------|----------------|
d|----------------|----------------|----------------|----------------|
a|----------------|----------------|----------------|----------------|
e|----------------|----------------|----------------|----------------|

A chord diagramE MajorE|----------------|--------1-------|----------------|----------------|
b|--------1-------|4---------------|4---------------|----------------|
g|3---------------|----------------|------------4---|1-----------15--|
d|----------------|----------------|----------------|----------------|
a|----------------|----------------|----------------|----------------|
e|----------------|----------------|----------------|----------------|

 3/4
A chord diagramE MajorE|18----------|16----------|14----------|13----------|
b|------------|------------|------------|------------|play
g|--------15--|--------15--|--------15--|--------15--|two
d|------------|------------|------------|------------|times
a|------------|------------|------------|------------|
e|------------|------------|------------|------------|

A chord diagramE MajorE|18----------|16----------|14----------|16----------|
b|------------|------------|------------|------------|
g|--------15--|--------15--|--------15--|------------|
d|------------|------------|------------|------------|
a|------------|------------|------------|------------|
e|------------|------------|------------|------------|

A chord diagramE MajorE|18----------|18----------|18----------|18----------|
b|----18------|----18------|----18------|----18------|
g|--------17--|--------17--|--------17--|--------17--|
d|------------|------------|------------|------------|
a|------------|------------|------------|------------|
e|------------|------------|------------|------------|

A chord diagramE MajorE|17----------|17----------|17----------|17----------|
b|----18------|----18------|----18------|----18------|repeat
g|--------17--|--------17--|--------17--|--------17--|whole
d|------------|------------|------------|------------|metroid
a|------------|------------|------------|------------|section
e|------------|------------|------------|------------|

Almost there ...

Sign in to get your own page with links to favourite songs and more. You are just one click away...

Login with Facebook Login with Google