Log in

One click and you are in

Login with Facebook Login with Google

Why sign up and log in

Guitar Tabs Explorer
Mini Mansions guitar tabs for Gummybear

Guitar tabs

Tuning: Standard (E A D G B E)

Gummybear by Mini Mansions


Intro:

e|---------------------------------------------------------------------------|
B|---------------------------------------------------------------------------|
G|---------------------------------------------------------------------------|
D|---------------------------------------------------------------------------|
A|----------------------------------------0-----2--4--5--5--5--5--5-4--------|
E|--7--7--7--7-5--7--7--7--7/9-7-5--2--2-----0-------------------------------|

What I like to play to the verse- palm mute first bit
e|------------------------------------7---7---7---7--7--5--3-----------------|
B|------------------------------------8---8---8---8--7--5--3-----------------|
G|--9-9-9-9---------------------------9---9---9---9--8--6--4-----------------|
D|--9-9-9-9---9-9---7-7---5-5---------9---9---9---9--9--7--5-----------------|
A|--7-7-7-7---9-9---7-7---5-5---------7---7---7---7--9--7--5-----------------|
E|--0-0-0-0---7-7---5-5---3-3------------------------7--5--3-----------------|


Chorus Riff:
The 12 can be achieved by bending the 10 up and back down (sounds better that way too)
e|---------------------------------------------------------------------------|
B|--12--10--7--5--3--5--5--5b6--5--3-----------------------------------------|
G|------------------------------------4--------------------------------------|
D|---------------------------------------------------------------------------|
A|---------------------------------------------------------------------------|
E|---------------------------------------------------------------------------|


Break:
No I got love for you...
e|---------------------------------------------------------------------------|
B|---------------------------------------------------------------------------|
G|--7-------11---9-----------------------------------------------------------|
D|--7--5----11---9-----------------------------------------------------------|
A|--5--5----9----7-----------------------------------------------------------|
E|-----7---------------------------------------------------------------------|


************************************

| /  Slide up
| b  Bend

************************************

↓ Add and view comments below ↓

What do you think about this song and these tabs?

Add your comments, questions, rant or a thumbs up below.

Almost there ...

Sign in to get your own page with links to favourite songs and more. You are just one click away...

Login with Facebook Login with Google