Guitar Tabs Explorer
Charles Mingus guitar tabs for Goodbye pork pie hat

Goodbye Pork Pie Hat tab


2.8 / 5 [5 votes]

Goodbye Pork Pie Hat tab by Charles Mingus

Guitar tabs with lyrics

Print

Goodbye, Pork Pie Hat
 by Charles Mingus

Notation by Rick Xavier
Generated by Voicings Staff

Durations:
 The no. of characters (digits, dashes & barlines) shows duration
 Whole note: 32
 Half note: 16
 Quarter note: 8
 Eighth note: 4
 Sixteenth note: 2

Directions:
 Section   Section Begin        Repeat   Repeat Begin
 End       Section End          2)       Repeat End (Play twice)
 Loop      Section Loop
 1.        Ending 1 etc.

 Coda    Coda           Co    To Coda           DS    Dal Segno
 Segno   Segno          CC    DC al Coda        SC    DS al Coda
 Fi      Fine           CF    DC al Fine        SF    DS al Fine
 DC      Da chord diagramDaDa Capo

 Caveat: Adjacent directions may be incomplete due to overlapping.



                                 Repeat
                                 Fmaj chord diagramFmajFmaj
E chord diagramEE -------------------------------|1----4---------------1----4----|
B chord diagramBB ------------------------1------|1----4---------------1----4----|
G chord diagramGG -------------------------------|2------------------------------|
D chord diagramDD -------------------------------|-------------------------------|
A chord diagramAA -------------------------------|-------------------------------|
E chord diagramEE -------------------------------|1------------------------------|



 Db13                            Gbmaj7
 6----4-------------------------|1-------4-------1--------------|
 6----4---------------6----4----|2-----------------------4------|
 4------------------------------|3------------------------------|
 -------------------------------|-------------------------------|
 4------------------------------|-------------------------------|
 -------------------------------|2------------------------------|



 B9b5                            Eb11
 1------------------------------|-------------------------------|
 2-----------------------1------|6----9---------------6----9----|
 2------------------------------|6------------------------------|
 -------------------------------|6------------------------------|
 2------------------------------|6------------------------------|
 -------------------------------|-------------------------------|



 D13 chord diagramD13D13  Db13                       Eb11
 7----6-------------------------|-------------------------------|
 5----4---------------6----4----|6-------9-------6--------------|
 5----4-------------------------|6-----------------------8------|
 -------------------------------|6------------------------------|
 5----4-------------------------|6------------------------------|
 -------------------------------|-------------------------------|



 Fmaj chord diagramFmajFmaj                            Bb9 chord diagramBb9Bb9
 1------------------------------|-------------------------------|
 1------------------------------|1----4-------------------------|
 2------------------------------|1-------------------------1----|
 ------------------------3------|3--------------------3---------|
 -------------------------------|1------------------------------|
 1------------------------------|-------------------------------|



 Db13                            Gm11 chord diagramGm11Gm11
 6----4-------------------------|-----1-------------------------|
 4------------------------------|1------------------------------|
 4-------------------------1----|3-------------------------3----|
 ---------------------3---------|3--------------------3---------|
 4------------------------------|-------------------------------|
 -------------------------------|3------------------------------|



 C7 chord diagramC7C7#9                            Db9 chord diagramDb9Db9  D13 chord diagramD13D13                D7 chord diagramD7D7#9
 -------------------------------|4----7-------------------------|
 4-------1----------------------|4----7------------------6------|
 3---------------1--------------|4----5------------------5------|
 2--------------------2---------|------------------------4------|
 3-------------------------4----|4----5------------------5------|
 -------------------------------|-------------------------------|



 G13 chord diagramG13G13                             Db9 chord diagramDb9Db9
 ----------------7-------3------|4------------------------------|
 5---------------7-------3------|4------------------------------|
 4------------------------------|4------------------------------|
 3------------------------------|-------------------------------|
 -------------------------------|4------------------------------|
 3------------------------------|-------------------------------|



 Gbmaj7                          B13 chord diagramB13B13
 1--------------------7----6----|-------------------------------|
 2--------------------7----6----|9------------------------------|
 3------------------------------|8------------------------------|
 -------------------------------|7------------------------------|
 -------------------------------|-------------------------------|
 2------------------------------|7------------------------------|



 Bb7 chord diagramBb7Bb7                             C7 chord diagramC7C7
 -------------------------------|-------------------------------|
 6------------------------------|11------9----------------------|
 7------------------------------|9---------------10------8------|
 6------------------------------|8------------------------------|
 -------------------------------|-------------------------------|
 6------------------------------|8------------------------------|



 Ebm7#5                          F7 chord diagramF7F7#9
 7-------6-------4--------------|4------------------------------|
 7-------6-------4-------6------|4------------------------------|
 6-----------------------5------|2------------------------------|
 -------------------------------|-------------------------------|
 6------------------------------|-------------------------------|
 -------------------------------|1------------------------------|



 Db7 chord diagramDb7Db7                             Gbmaj7b5
 -------------------------------|-------------------------------|
 6------------------------------|1------------------------------|
 4------------------------------|3-------3-------1--------------|
 3------------------------------|3-----------------------3------|
 4------------------------------|-------------------------------|
 -------------------------------|2------------------------------|


                 2)
 B7 chord diagramB7B7
 -------------------------------|-------------------------------|
 4---------------1--------------|-------------------------------|
 2------------------------------|-------------------------------|
 1------------------------------|-------------------------------|
 2------------------------------|-------------------------------|
 -------------------------------|1------------------------------|




 -------------------------------|
 -------------------------------|
 -------------------------------|
 -------------------------------|
 -------------------------------|
 -------------------------------|


Adapted from the "Real Book" chart