Guitar Tabs Explorer
Mindless Self Indulgence bass tabs for This isnt good

This Isn't Good bass tab


Be the first to rate


SlutieroAuthor: Slutiero

Jamplay guitar lessons

This Isn't Good bass tab by Mindless Self Indulgence

"This Isn´t Good" is one of the bonus tracks of the re-issue version of American rockers Mindless Self Indulgence´s debut album "Tight". The album was originally released in 1999, and then re-issued in 2011 with several bonus tracks.

Bass tabs

Print
  • Tuning: Standard tuning
  • Difficulty: Intermediate
Okay, I did everything by ear because i couldn`t find any tabs and if it sucks i`m sorry.

[Intro]

No Bass

[Verse 1]

G|-------------------------|
D|-------------------------|
A|----------------1-1--4-3-|
E|-1-1--1-1--1-1-----------|

G|-------------------------|
D|-------------------------|
A|----------------1-1--4-3-|
E|-1-1--1-1--1-1-----------|


[Chorus]

G|----------------------------------------------------------|
D|----------------------------------------------------------|
A|-3---------------4-3--------------4-3--------------4-3-3--|
E|----3--4--6--2--------3--4--6--2-------3--4--6--2---------|


[verse 2]

G|---------------------------------------------------------------------------|
D|---------------------------------------------------------------------------|
A|--3-3--3-3---------------------------------------------------------------------|
E|-------------4--4--4-4--4--7--7--7-7--7--8-8-------------------------------------------|

Repeat Verse 1, Chorus and Verse 2


G|--------------------------------------------|
D|--------------------------------------------|
A|--------------------------------------------|
E|--8-8--8-8--4--4--4-4--4--7--7--7-7--7--8-8-|


G|------------|
D|------------|
A|------------|
E|-1--1--1--1-|


Repeat Chorus and Verse 2



G|------------|
D|------------|
A|------------|
E|---8-8--8-8-|


and then play this until the end of the song

G|----------------------------------|
D|----------------------------------|
A|----------------------------------|
E|--4--4--4-4--4--7--7--7-7--7--8-8-|

Comment this song and these bass tabs

Do you have corrections, comments on the bass tabs, thoughts about the song or a message to the author? Write them below.