Log in

One click and you are in

Login with Facebook Login with Google

Why sign up and log in

Guitar Tabs Explorer
Mindless Self Indulgence bass tabs for Money

Bass tabs

Tuning: Standard (E A D G)


Intro:

No Bass
Verse 1:

G|-----------|
D|-----------|
A|-0-0-5-1---|
E|-----------|

G|-----------|
D|-----------|
A|-0-0-5-1---|
E|-----------|

G|---------|
D|---------|
A|3-3-3-0-0|
E|---------|

G|---------|
D|---------|
A|3-3-3-0-0|
E|---------|

G|---------|
D|---------|
A|3-3-3-0-0|
E|---------|

Chorus:

G|--------------------------|
D|---3-2---2-3---2-3--0-2---|
A|3-3---0-0---3-3----------0|
E|--------------------------|

G|--------------------------|
D|---3-2---2-3---2-3--0-2---|
A|3-3---0-0---3-3----------0|
E|--------------------------|

G|--------------------------|
D|---3-2---2-3---2-3--0-2---|
A|3-3---0-0---3-3----------0|
E|--------------------------|

G|--------------------------|
D|---3-2---2-3---2-3--0-2---|
A|3-3---0-0---3-3----------0|
E|--------------------------|

G|-------------------|
D|-------------------|
A|0-0--0-0--0-3-3-3-3|
E|-------------------|

G|-------------------|
D|-------------------|
A|0-0--0-0--0-3-3-3-3|
E|-------------------|

G|-----------|
D|-----------|
A|0-0--0-0-0~|
E|-----------|


Verse 2:

G|---------|
D|---------|
A|-0-0-5-1-|
E|---------|

G|---------|
D|---------|
A|-0-0-5-1-|
E|---------|

G|---------|
D|---------|
A|3-3-3-0-0|
E|---------|

G|---------|
D|---------|
A|3-3-3-0-0|
E|---------|

G|---------|
D|---------|
A|3-3-3-0-0|
E|---------|


No bass after, just guitar


Bridge:

G|-----------|
D|-----------|
A|-----------|
E|5~-3~-1~-8~|

G|-----------|
D|-----------|
A|-----------|
E|5~-3~-1~-8~|

G|---------------------------------|
D|---------------------------------|
A|0-0-0-0-0-0-0-0--5-5-5-5--1-1-1-1|
E|---------------------------------|

G|------------------------------------------------------------------|
D|------------------------------------------------------------------|
A|0-0-0-0-0-0-0-0--5-5-5-5--1-1-1-1-1-1-1-1-1-1-1-1--0-0-0-0-0-0-0-0|
E|------------------------------------------------------------------|

G|---------------------------------|
D|---------------------------------|
A|0-0-0-0-0-0-0-0--5-5-5-5--1-1-1-1|
E|---------------------------------|

G|------------------------------------------------------------------|
D|------------------------------------------------------------------|
A|0-0-0-0-0-0-0-0--5-5-5-5--1-1-1-1-1-1-1-1-1-1-1-1--0-0-0-0-0-0-0-0|
E|------------------------------------------------------------------|


Outro:

G|---------|
D|---------|
A|-0-0-5-1-|
E|---------|

G|---------|
D|---------|
A|-0-0-5-1-|
E|---------|

G|----------|
D|----------|
A|3-3-3--0-0|
E|----------|

G|----------|
D|----------|
A|3-3-3--0-0|
E|----------|

G|----------|
D|----------|
A|3-3-3--0-0|
E|----------|

Almost there ...

Sign in to get your own page with links to favourite songs and more. You are just one click away...

Login with Facebook Login with Google