Log in

One click and you are in

Login with Facebook Login with Google

Why sign up and log in

Guitar Tabs Explorer
Mindless Self Indulgence bass tabs for Golden i

Golden I bass tab by Mindless Self Indulgence

Mindless Self Indulgence bass tabs for Golden i

Bass tabs

Standard tuning (EADG)

🏷Legend:
r = rest
/ = slide up
\ = slide down

INTRO (x2):

Gb |------------------------------------|----------------------------------|
Db |-----11---11-----11-----------------|---------------------11---11------|
Ab |-9------9------9------9---9-------9-|-----9---9-----9--------9-----9-r-|
Eb |------------------------7---7-------|-7-----7-----7-----7--------------|
   1  &  2  &  3  &  4  &   1  &  2  &  3  &  4  &


VERSE 1 (x2):

Gb |------------------------------------|----------------------------------|
Db |-----11---11-----11-----------------|---------------------11---11------|
Ab |-9------9------9------9---9-------9-|-----9---9-----9--------9-----9-r-|
Eb |------------------------7---7-------|-7-----7-----7-----7--------------|
   1  &  2  &  3  &  4  &   1  &  2  &  3  &  4  &


CHORUS 1 (x2):

Gb |---------------------------------|---------------------------------|
Db |---------------------------------|---------------------------------|
Ab |---------------------------------|-4-----4-------------------------|
Eb |-5-----5-----2-----2-r---2---2---|-------------3-----3-r---3---3---|
   1  &  2  &  3  &  4  &   1  &  2  &  3  &  4  &

PRE-VERSE:

Gb |---------------------------------|---------------------------------|
Db |---------5-----r-----------------|---------------------------------|
Ab |-7-------------------------------|---------7-----r---9-r---9-r-----|
Eb |---------------------------------|-9-------------------------------|
   1  &  2  &  3  &  4  &   1  &  2  &  3  &  4  &


VERSE 2 (x2):

Gb |------------------------------------|----------------------------------|
Db |-----11---11-----11-----------------|---------------------11---11------|
Ab |-9------9------9------9---9-------9-|-----9---9-----9--------9-----9-r-|
Eb |------------------------7---7-------|-7-----7-----7-----7--------------|
   1  &  2  &  3  &  4  &   1  &  2  &  3  &  4  &


CHORUS 2 (x2):

Gb |---------------------------------|---------------------------------|
Db |---------------------------------|---------------------------------|
Ab |---------------------------------|-4-----4-------------------------|
Eb |-5-----5-----2-----2-r---2---2---|-------------3-----3-r---3---3---|
   1  &  2  &  3  &  4  &   1  &  2  &  3  &  4  &


BRIDGE (x2):

Gb |---------------------------------|---------------------------------|
Db |---------------------------------|---------------------------------|
Ab |---------------------------------|---------------------------------|
Eb |-3---------------2---------------|-r-------------------------------|
   1  &  2  &  3  &  4  &   1  &  2  &  3  &  4  &


INTERLUDE:
                 (x2)
Gb |---------------------------------|---------------------------------|
Db |---------------------------------|---------------------------------|
Ab |---------1---1-----------1---2---|---------1---1-------------------|
Eb |-0---0-----------2---2-----------|-0---0-----------2---2---r-------|
   1  &  2  &  3  &  4  &   1  &  2  &  3  &  4  &

                 (x2)
Gb |---------------------------------|---------------------------------|
Db |---------------------------------|---------------------------------|
Ab |-7-----------8---------------8---|-7-----------8---------------8---|
Eb |-----------------7-------r-------|-----------------7-------r-------|
   1  &  2  &  3  &  4  &   1  &  2  &  3  &  4  &


VERSE 3 (x2):

Gb |------------------------------------|----------------------------------|
Db |-----11---11-----11-----------------|---------------------11---11------|
Ab |-9------9------9------9---9-------9-|-----9---9-----9--------9-----9-r-|
Eb |------------------------7---7-------|-7-----7-----7-----7--------------|
   1  &  2  &  3  &  4  &   1  &  2  &  3  &  4  &


OUT-CHORUS (x2):

Gb |---------------------------------|---------------------------------|
Db |---------------------------------|---------------------------------|
Ab |---------------------------------|-4-----4-------------------------|
Eb |-5-----5-----2-----2-r---2---2---|-------------3-----3-r---3---3---|
   1  &  2  &  3  &  4  &   1  &  2  &  3  &  4  &

Almost there ...

Sign in to get your own page with links to favourite songs and more. You are just one click away...

Login with Facebook Login with Google