Search tabs and chords

Search for song, artist or band

Log in

One click and you are in

Login with Facebook Login with Google

Why sign up and log in

Guitar Tabs Explorer
Nicki Minaj guitar tabs for Megatron

Guitar tabs

Tuning: Standard (E chord diagramEE A chord diagramAA D chord diagramDD G chord diagramGG B chord diagramBB E chord diagramEE)

Difficulty: Novice

Intro:
after "BRA-TA-TA-TA"
e|---------------------------------------------------------------------------|
B|---------------------------------------------------------------------------|
G|---------------------------------------------------------------------------|
D|---------------------------------------------------------------------------|
A|--4-4-4-4-4-4-4-4-----------------4-4-4-4-4-4-4-4-4------------------------|
E|-------------------1--4---1--4-----------------------1--4---1--4-----------|

e|---------------------------------------------------------------------------|
B|---------------------------------------------------------------------------|
G|---------------------------------------------------------------------------|
D|---------------------------------------------------------------------------|
A|--4-4-4-4-4-4-4-4------------------4-4-4-4-4-4-4-4-4-4-4-4-4-4-4-----------|
E|-------------------1--4---1--4---------------------------------------------|


Verses:

e|-----------------------------------|
B|-----------------------------------|
G|-----------------------------------|       x8
D|-----------------------------------|
A|-4-4-4-4--------4-4-4-4------------|
E|----------1--4-----------1--4------|


Chorus:
again, after the first "BRA TA TA TA"
e|-----------------------------------|
B|-----------------------------------|
G|-----------------------------------|       x8
D|-----------------------------------|
A|-4-4-4-4--------4-4-4-4------------|
E|----------1--4-----------1--4------|

Break: - between chorus and verse

e|---------------------------------------------------------------------------|
B|---------------------------------------------------------------------------|
G|---------------------------------------------------------------------------|
D|---------------------------------------------------------------------------|
A|--4-4-4-4-4-4-4-4-----------------4-4-4-4-4-4-4-4-4------------------------|
E|-------------------1--4---1--4-----------------------1--4---1--4-----------|

e|---------------------------------------------------------------------------|
B|---------------------------------------------------------------------------|
G|---------------------------------------------------------------------------|
D|---------------------------------------------------------------------------|
A|--4-4-4-4-4-4-4-4------------------4-4-4-4-4-4-4-4-4-4-4-4-4-4-4-----------|
E|-------------------1--4---1--4---------------------------------------------|


That's essentially it,very easy and repetitive, but kinda fun to play.

Megatron tab

Nicki Minaj guitar tabs for Megatron "Megatron" is a single released by infamous US rapper Nicki Minaj in June 2019. Nicki Minaj has contributed to the writing of "Megatron".

Almost there ...

Sign in to get your own page with links to favourite songs and more. You are just one click away...

Login with Facebook Login with Google