Amore Unico Amore by Mina

Amore Unico Amore tab by Mina

Guitar tabs

intro
  Bb    T T   Cm   T  T   Bb   T T   F     Dm Eb/F
e|-1--------8--6------3-------10--8----1-------8--6-----5-6-5-3---1----------------|
b|----------------------------------------------------------------2--4-------------|
g|---2h3----------------4h5--------------2h3----------------------2--3-------------|
D|------------------------------------------------------3---------0----------------|
A|-1------------------3----------------1-------------------------------------------|
E|-------------------------------------------------------------------1-------------|

verse 1
  Bb          Bb/D    EbM7       Dm7           Cm7
e|----------------------------------------------------1------------------------3---|
b|-3--------------------3---------------3------1--3---2------------------------4---|
g|-3--------------------3-------------3------3--------2------------------------3---|
D|-3--------------------3-----------1--------1--------0------------------------5---|
A|-1--------------------5------------------------------------------------------3---|
E|---------------------------------------------------------------------------------|
  DOVE NON HO PIU' PAROLE INIZI TU          DOVE COMINCIO A STARE BENE

  Dm7           Eb   Eb/F  Bb        Eb  F
e|-5--------------------------------------6---------------------5------------------|
b|-6------------------------8------8------6----------------8----6------------------|
g|-5------------------------8------8------7-----------7----8----5------------------|
D|-7------------------------8------8------8----------8-----8----7------------------|
A|-5------------------------6------8------8--------8-------6----8------------------|
E|----------------------------------------6----------------------------------------|
    DOVE MI SEMBRA DI VOLARE E NON TORNARE GIU'

  Bb             Bb/D    EbM7    F   Dm7
e|-----------------------------------------3-----------------1---------------------|
b|-3---------------------------3-----------3-----1-3------1--2---------------------|
g|-3---------------------------3-----------3---3------2-3----2---------------------|
D|-3---------------------------3-----------1---1------1------0---------------------|
A|-1---------------------------5---------------------------------------------------|
E|----------------------------------------------------1----------------------------|
   AMORE IN TUTTI QUANTI I SENSI AMORE MIO

           Cm7   Dm7         Cm7     Eb/F    Bb
e|--------------------3-------5-------------------3------------------------6-------|
b|--------------------4-------6-------------------4------------8-----------6-------|
g|--------------------3-------5-------------------3------------8-----------7-------|
D|--------------------5-------7-------------------5------------8-----------8-------|
A|--------------------3-------5-------------------3------------8-----------8-------|
E|-------------------------------------------------------------------------6-------|
 AMORE FIGLIO DI ALTRI TEMPI AMOR DAL COR CHE SI COMMUOVE AMORE AMORE AMORE MIO

        EbM7         Dm7     D7           Gm
e|-------------6---------------------5-----------5-----------------------3---------|
b|-------6-----8---------------------6-----------7-----------------------3---------|
g|-7--8--7-----7---------------------5-----------5-----------------------3---------|
D|-8--------8--8---------------------7-----------7-----------------------5---------|
A|-------------6---------------------5-----------5-----------------------5---------|
E|-6-----6--6------------------------------------------------------------3---------|
         NON SO QUANT'E' CHE IO TI CERCO  E NEANCHE SO SE TI HO INCONTRATO

  EbM7             Cm7  Eb/F       F     G4     G7
e|-3-----------------------------3--------------------------------------------3----|
b|-3-----------------------------4-----4-----------------1---------3----------3----|
g|-3-----------------------------3-----3-----------------2---------5----------4----|
D|-1-----------------------------5-----------------------1---------5----------3----|
A|-------------------------------3--------------------------------------------5----|
E|-------------------------------------1-----------------1---------3----------3----|
     PERCHE' E' DIFFICILE CAPIRLO    QUANDO QUALCUNO E' INNAMORAT-----O

Pre Chorus 1
    F         C       Dm7   Dm7/F E4 E
e|------1------------------0--------------1-------1------0--0----------------------|
b|------1------------------1--------------1-------1------0--0----------------------|
g|------2------------------0--------------2-------2------2--1----------------------|
D|------3------------------2--------------0--------------2--2----------------------|
A|------3------------------3-----------------------------2--2----------------------|
E|------1-----------------------------------------1------0--0----------------------|
  AMORE SENZA FINE AMORE LIBERO COSI' BUGIARDO E COSI' VER-O

Chorus
 A       A/C#         Bm7 Bm6
AMORE SENZA UNA RAGIONE SENZA VIA D'USCITA
   A/C#      F#m        D   E E7
IMPOSSIBILE PADRE PADRONE DELLA NOSTRA VITA...
    A         A/C#       Bm7
AMORE VENTO NELLE MANI AMORE DI PAROLE AL VENTO
E          C#m   F#m7       Bm7  E    A F7sus4
  CHE ASPETTI A STRINGERMI   TRA LE TUE BRACCIA  AMORE MIO

verse 2
  Bb                 EbM7  F   Dm7             Cm7
e|------------------------------------3-------------1---------------------------3--|
b|-3----------------------------------3---1-3-----1-2---------------------------4--|
g|-3----------------------------------3-3-----2-3---2---------------------------3--|
D|-3----------------------------------1-1-----1-----0---------------------------5--|
A|-1----------------------------------------------------------------------------3--|
E|--------------------------------------------1------------------------------------|
  DOVE NON TRAMONTA IL SOLE ESISTI TU        LA' DOVE TUTTO PUO' ACCADERE

  Dm7           Eb   Eb/F   Bb
e|-5-----------------------------------------6-------------------------------------|
b|-6------------------------8-------8--------6-------------------------------------|
g|-5------------------------8-------8--------7-------------------------------------|
D|-7------------------------8-------8--------8-------------------------------------|
A|-5------------------------6-------8--------8-------------------------------------|
E|-------------------------------------------6-------------------------------------|
   DOVE LA VIA TRA IL BENE E IL MALE NON SI DISTINGUE PIU'

        EbM7         Dm7     D7           Gm
e|-------------6---------------------5-----------5-----------------------3---------|
b|-------6-----8---------------------6-----------7-----------------------3---------|
g|-7--8--7-----7---------------------5-----------5-----------------------3---------|
D|-8--------8--8---------------------7-----------7-----------------------5---------|
A|-------------6---------------------5-----------5-----------------------5---------|
E|-6-----6--6------------------------------------------------------------3---------|
        TI AVEVO GIA' E TI AVEVO PERSO   TI HO MALEDETTO E TI HO SOGNATO

  EbM7             Cm7  Eb/F       F   G4     G
e|-3-----------------------------3-----------------------------------------3-------|
b|-3-----------------------------4-----4-----------------1------3----------3-------|
g|-3-----------------------------3-----3-----------------2------5----------4-------|
D|-1-----------------------------5-----------------------1------5----------3-------|
A|-------------------------------3-----------------------------------------5-------|
E|-------------------------------------1-----------------1------3----------3-------|
  HO ALZATO I PUGNI CONTRO IL CIELO    PERO' TI HO SEMPRE PERDONAT----O

Pre Chorus 2
      F         C       Dm7   Dm7/F E4 E
e|----------1------------------0--------------1--------1------0--0-----------------|
b|----------1------------------1--------------1--------1------0--0-----------------|
g|----------2------------------0--------------2--------2------2--1-----------------|
D|----------3------------------2--------------0---------------2--2-----------------|
A|----------3------------------3------------------------------2--2-----------------|
E|----------1------------------------------------------1------0--0-----------------|
  AMORE AD OGNI COSTO AMORE INUTILE MA DILLO ANCORA CHE CI CRED-O

Chorus 2
 A       A/C#         Bm7 Bm6
AMORE SENZA UNA RAGIONE SENZA VIA D'USCITA
   A/C#      F#m        D   E E7
IMPOSSIBILE PADRE PADRONE DELLA NOSTRA VITA...
    A         A/C#       Bm7
AMORE VENTO NELLE MANI AMORE DI PAROLE AL VENTO
E    C#m  F#m7     Bm7  E4 E
 AMORE UNICO   UNICO AMORE

Instrumental break
|A   |A   |Bm7   |Bm7   |

|C#m7  |C#m7  |D    |E7   |

Chorus 3
    A         A/C#       Bm7
AMORE VENTO NELLE MANI AMORE DI PAROLE AL VENTO
E         C#m   F#m7       Bm7  E  E7sus4 E
 CHE ASPETTI A STRINGERMI   TRA LE TUE BRACCIA  AMO------RE

end
  A  A7  D  Ebm7b5  C#m7  Bm  Dm6  A
e|--0---------2---2--------4------2----5-----5-------------------------------------|
b|--2----2----3---2--------5------3----6-----5-------------------------------------|
g|--2----0----2---2--------4------4----4-----2-------------------------------------|
D|--2----2----0---1--------6------4----0-----2-------------------------------------|
A|--0----0-----------------4------2----------0-------------------------------------|
E|---------------------------------------------------------------------------------|

Note Use your right hand to tap the note marked as T and then slide to the next one
while the previous chord is ringing

Other versions of Amore Unico Amore

Alternative guitar chords and tabs for Amore Unico Amore by Mina

Find guitar tabs and chords

A B C D E F G H I J K L M N O P Q R S T U V W X Y Z #