Acqua E Sale by Mina

Acqua E Sale tab by Mina

Solo guitar tabs

Tuning: Standard (E A D G B E)

Solo:

e|-------------------17-p15.-|-14(15)14-----------------------------------------------|
B|------15/17-17(19)---------|----------------13p12-----------------------------------|
G|-2/14----------------------|-----------12-14--------12/11----11------------------12/|
D|---------------------------|----------------------14-----12----12-------12--12h14---|
A|---------------------------|---------------------------------------12h14------------|
E|---------------------------|--------------------------------------------------------|

e|----------------12-15-14(15)-14p12----|--17-17/12-12/15-15/10-10/12-12/7-7/8-8/3----|
B|-------------12-------------------15--|---------------------------------------------|
G|-----------12-------------------------|---------------------------------------------|
D|---------14---------------------------|---------------------------------------------|
A|------14------------------------------|---------------------------------------------|
E|-12h15--------------------------------|---------------------------------------------|
     +     +   +   +  +     vib
e|-------------------------|----------------------------------------------------------|
B|-----8-7--------5--------|----------------------------------------------------------|
G|-7-9-----9-7------5---7--|--5p4-----------------------------------------------------|
D|-------------9------7---5|-------5p4------------------------------------------------|
A|-------------------------|-----7-----5----5/7---------------------------------------|
E|-------------------------|-------------7--------------------------------------------|

************************************

| h  Hammer-on
| p  Pull-off
| /  Slide up
| \  Slide down

************************************

Find guitar tabs and chords

A B C D E F G H I J K L M N O P Q R S T U V W X Y Z #