Log in

One click and you are in

Login with Facebook Login with Google

Why sign up and log in

Guitar Tabs Explorer
Mimesis tabs for Spectre

Guitar tabs with lyrics

Group: Mimesis
>>Album: Venus Motel

Chords Used:

Bm: x24432
G: 3x0003
A: x02220
Dmaj7/A: x00222
G(type2): 320033
Emsus4: 022200

Gtr.1 (Acoustic) plays the chords.
Verse(x2)

A chord diagramB minorBm  A chord diagramG+G  A chord diagramA augmentedA  Bm, etc.


Chorus

Dmaj7/A  G(type2)  Dmaj7/A  G(type2)  Dmaj7/A  G(type2)  Emsus4  A chord diagramA augmentedA

Return to Verse, repeat chorus, then break for Gtr.2 riff, then...

A chord diagramG+G  A chord diagramA augmentedA  A chord diagramB minorBm


Ending

  (A chord diagramB minorBm)

E------------------------------
B----------------------------3-
G-------4------4------4----4---
D---4-4----4-4----4-4----4----- etc.
A-2----------------------------
E------------------------------

Repeat 4x, progression is:

A chord diagramB minorBm  A chord diagramBm/ABm/A  Bm/G  Bm/F# (bass notes are played by Gtr.2)

End on A chord diagramB minorBm chord.

Part for Gtr.2(Clean Electric):

First Verse

Start on first A chord diagramG+G

 A chord diagramG+G          A chord diagramA augmentedA           A chord diagramB minorBm        A chord diagramG+G         A chord diagramA augmentedA        A chord diagramB minorBm        A chord diagramG+G

E--------10-12-10------------------------10-------------------------
B--10-12----------12-10-10h12-12---10-12----12-10-10-10-------------
G-------------------------------------------------------11-11---9-11
D-------------------------------------------------------------------
A-------------------------------------------------------------------
E-------------------------------------------------------------------

      A chord diagramA augmentedA         A chord diagramB minorBm      A chord diagramG+G      A chord diagramA augmentedA     Bm(lyrics begin)

E-------------------------------------------------------------------
B--10---------------------------------------------------------------
G-----12-11-9-9-9h11--7--------9------------------------------------
D--------------------------------11--9(hold and fade)---------------
A-------------------------------------------------------------------
E-------------------------------------------------------------------

Break between First Verse(Gtr.1 continues)

E-----7-7--7-----7-x--7-7--7-----7---------
B-----7-7--8-----7-x--7-7--8-----7---------
G-----7-7--7-----7-x--7-7--7-----7---(fade)
D-----9-9--9-----9-x--9-9--9-----9---------
A-----9-9--9-----9-x--9-9--9-----9---------
E--7--7-7--7-----7-x--7-7--7-----7---------


Chorus

   Dmaj7/A       G(type2)                    Emsus4

E--5--5-5--5-5---7-7--7---------------------------------------------
B--7--7-7--7-7---8-8--8---------------------10--10-10-10-10-10-10---
G--6--6-6--6-6---7-7--7----repeat 3x, then---9---9--9--9--9--9--9---
D--0--0-0--0-0---0-0--0----------------------9---9--9--9--9--9--9---
A-------------------------------------------------------------------
E-------------------------------------------------------------------

      A chord diagramA augmentedA

E---------------------------
B-10-10--10-10--10-10-------
G--9--9---9--9---9--9-------
D--9-11--11-11--11-11-(hold)
A-------------------0-------
E---------------------------

Second Verse(Gtr.1 plays same rhythm)

E--------10-12-10------------------------10-9-12----------------------
B--10-12----------12-10-10h12-12---10-12---------10-10----------------
G------------------------------------------------------11-11---9-11---
D---------------------------------------------------------------------
A---------------------------------------------------------------------
E---------------------------------------------------------------------

(staggered jazz beat)

E-------------------------------------------------------------------
B--10---------------------------------------------------------------
G-----12-11-9-9h11--7--------9--------------------------------------
D------------------------------11s12--9(hold and fade)--------------
A-------------------------------------------------------------------
E-------------------------------------------------------------------


Break between Second Verse(Gtr.1 continues)

   A chord diagramB minorBm      A chord diagramG+G  A chord diagramA augmentedA  A chord diagramB minorBm      A chord diagramG+G  A chord diagramA augmentedA  (A chord diagramB minorBm)

E-----0-------------0----------------
B--3---3---3--2--3---3---3--2--------
G--4----4--0--2--4----4--4--2--(fade)
D--4-------0--2--4-------5--2--------
A------------------------------------
E------------------------------------


Riff from Break to Ending(repeat 3x, Gtr.1 tacet first time through)

E---------------------------------------------------------------------
B--8-7--------------8-7---------------8-7-------------8-7-------------
G------7----------------7---------7------7----------------7-----------
D--------7-9--7------------7-9--7-----------7-9--7-----------7-9--7-9-
A----------------9---------------------------------9------------------
E---------------------------------------------------------------------


Ending(Gtr.2)

E---------------------------------------------------------------------
B---------------------------------------------------------------------
G---------6h7--9------------------------------------------------------
D--9--------------7h9-9-----------------------------------------------
A------------------------------2----2-0----0----------------0-----2---
E--------------------------------------------3----3-2----2------------
>>
>>


______________________________________________________
Get Your Private, Free Email at http://www.hotmail.com

Almost there ...

Sign in to get your own page with links to favourite songs and more. You are just one click away...

Login with Facebook Login with Google