Log in

One click and you are in

Login with Facebook Login with Google

Why sign up and log in

Guitar Tabs Explorer
Miller Steve Band bass tabs for The joker

Bass tabs

4 sting bass
by:eddy d.
Notes:

G |-----------------------------------------------------------------------||
D |-----------------------0-----------------------------------------------||
A |-------------0-1-1---1---33------0--1-1-1-1-1----0---------------------||
E |-1--1------3------------------3---------------------3------------------||

          (Intro/Verse Repeat 8X)

G |-----------------------------------------||
D |-----------------------------------------||
A |----------3h5----1---------3h5-----------||  (Chorus Repeat 2X)
E |1----------------------------------------||

G |-----------------------------------------------------------------------||
D |-----------------------0-----------------------------------------------||
A |-------------0-1-1---1---33------0--1-1-1-1-1----0---------------------||
E |-1--1------3------------------3---------------------3------------------||

(Verse Repeat 8X)


G |-----------------------------------------||
D |-----------------------------------------||
A |----------3h5----1---------3h5-----------||  (Chorus Repeat 2X)
E |1----------------------------------------||

G |-----------------------------------------------------------------------||
D |-----------------------0-----------------------------------------------||
A |-------------0-1-1---1---33------0--1-1-1-1-1----0---------------------||
E |-1--1------3------------------3---------------------3------------------||

Almost there ...

Sign in to get your own page with links to favourite songs and more. You are just one click away...

Login with Facebook Login with Google